  0
SECTION
  2
HEADER
  9
$ACADVER
  1
AC1018
  9
$ACADMAINTVER
 70
     0
  9
$DWGCODEPAGE
  3
ANSI_1252
  9
$INSBASE
 10
0.0
 20
0.0
 30
0.0
  9
$EXTMIN
 10
-0.5
 20
-0.5
 30
-0.5
  9
$EXTMAX
 10
5.0
 20
5.0
 30
5.0
  9
$LIMMIN
 10
-0.5
 20
-0.5
  9
$LIMMAX
 10
5.0
 20
5.0
  9
$ORTHOMODE
 70
     0
  9
$REGENMODE
 70
     1
  9
$FILLMODE
 70
     1
  9
$QTEXTMODE
 70
     0
  9
$MIRRTEXT
 70
     1
  9
$LTSCALE
 40
1.0
  9
$ATTMODE
 70
     1
  9
$TEXTSIZE
 40
0.2
  9
$TRACEWID
 40
0.05
  9
$TEXTSTYLE
  7
Standard
  9
$CLAYER
  8
0
  9
$CELTYPE
  6
ByLayer
  9
$CECOLOR
 62
   256
  9
$CELTSCALE
 40
1.0
  9
$DISPSILH
 70
     0
  9
$DIMSCALE
 40
1.0
  9
$DIMASZ
 40
0.18
  9
$DIMEXO
 40
0.0625
  9
$DIMDLI
 40
0.38
  9
$DIMRND
 40
0.0
  9
$DIMDLE
 40
0.0
  9
$DIMEXE
 40
0.18
  9
$DIMTP
 40
0.0
  9
$DIMTM
 40
0.0
  9
$DIMTXT
 40
0.18
  9
$DIMCEN
 40
0.09
  9
$DIMTSZ
 40
0.0
  9
$DIMTOL
 70
     0
  9
$DIMLIM
 70
     0
  9
$DIMTIH
 70
     1
  9
$DIMTOH
 70
     1
  9
$DIMSE1
 70
     0
  9
$DIMSE2
 70
     0
  9
$DIMTAD
 70
     0
  9
$DIMZIN
 70
     0
  9
$DIMBLK
  1

  9
$DIMASO
 70
     1
  9
$DIMSHO
 70
     1
  9
$DIMPOST
  1

  9
$DIMAPOST
  1

  9
$DIMALT
 70
     0
  9
$DIMALTD
 70
     2
  9
$DIMALTF
 40
25.4
  9
$DIMLFAC
 40
1.0
  9
$DIMTOFL
 70
     0
  9
$DIMTVP
 40
0.0
  9
$DIMTIX
 70
     0
  9
$DIMSOXD
 70
     0
  9
$DIMSAH
 70
     0
  9
$DIMBLK1
  1

  9
$DIMBLK2
  1

  9
$DIMSTYLE
  2
Standard
  9
$DIMCLRD
 70
     0
  9
$DIMCLRE
 70
     0
  9
$DIMCLRT
 70
     0
  9
$DIMTFAC
 40
1.0
  9
$DIMGAP
 40
0.09
  9
$DIMJUST
 70
     0
  9
$DIMSD1
 70
     0
  9
$DIMSD2
 70
     0
  9
$DIMTOLJ
 70
     1
  9
$DIMTZIN
 70
     0
  9
$DIMALTZ
 70
     0
  9
$DIMALTTZ
 70
     0
  9
$DIMUPT
 70
     0
  9
$DIMDEC
 70
     4
  9
$DIMTDEC
 70
     4
  9
$DIMALTU
 70
     2
  9
$DIMALTTD
 70
     2
  9
$DIMTXSTY
  7
Standard
  9
$DIMAUNIT
 70
     0
  9
$DIMADEC
 70
     0
  9
$DIMALTRND
 40
0.0
  9
$DIMAZIN
 70
     0
  9
$DIMDSEP
 70
    46
  9
$DIMATFIT
 70
     3
  9
$DIMFRAC
 70
     0
  9
$DIMLDRBLK
  1

  9
$DIMLUNIT
 70
     2
  9
$DIMLWD
 70
    -2
  9
$DIMLWE
 70
    -2
  9
$DIMTMOVE
 70
     0
  9
$LUNITS
 70
     2
  9
$LUPREC
 70
     4
  9
$SKETCHINC
 40
0.1
  9
$FILLETRAD
 40
0.5
  9
$AUNITS
 70
     0
  9
$AUPREC
 70
     0
  9
$MENU
  1
.
  9
$ELEVATION
 40
0.0
  9
$PELEVATION
 40
0.0
  9
$THICKNESS
 40
0.0
  9
$LIMCHECK
 70
     0
  9
$CHAMFERA
 40
0.0
  9
$CHAMFERB
 40
0.0
  9
$CHAMFERC
 40
0.0
  9
$CHAMFERD
 40
0.0
  9
$SKPOLY
 70
     0
  9
$TDCREATE
 40
2460054.591846782
  9
$TDUCREATE
 40
2460054.508513449
  9
$TDUPDATE
 40
2460054.59184728
  9
$TDUUPDATE
 40
2460054.508513947
  9
$TDINDWG
 40
0.0000000116
  9
$TDUSRTIMER
 40
0.0000000116
  9
$USRTIMER
 70
     1
  9
$ANGBASE
 50
0.0
  9
$ANGDIR
 70
     0
  9
$PDMODE
 70
     0
  9
$PDSIZE
 40
0.0
  9
$PLINEWID
 40
0.0
  9
$SPLFRAME
 70
     0
  9
$SPLINETYPE
 70
     6
  9
$SPLINESEGS
 70
     8
  9
$HANDSEED
  5
207
  9
$SURFTAB1
 70
     6
  9
$SURFTAB2
 70
     6
  9
$SURFTYPE
 70
     6
  9
$SURFU
 70
     6
  9
$SURFV
 70
     6
  9
$UCSBASE
  2

  9
$UCSNAME
  2

  9
$UCSORG
 10
0.0
 20
0.0
 30
0.0
  9
$UCSXDIR
 10
1.0
 20
0.0
 30
0.0
  9
$UCSYDIR
 10
0.0
 20
1.0
 30
0.0
  9
$UCSORTHOREF
  2

  9
$UCSORTHOVIEW
 70
     0
  9
$UCSORGTOP
 10
0.0
 20
0.0
 30
0.0
  9
$UCSORGBOTTOM
 10
0.0
 20
0.0
 30
0.0
  9
$UCSORGLEFT
 10
0.0
 20
0.0
 30
0.0
  9
$UCSORGRIGHT
 10
0.0
 20
0.0
 30
0.0
  9
$UCSORGFRONT
 10
0.0
 20
0.0
 30
0.0
  9
$UCSORGBACK
 10
0.0
 20
0.0
 30
0.0
  9
$PUCSBASE
  2

  9
$PUCSNAME
  2

  9
$PUCSORG
 10
0.0
 20
0.0
 30
0.0
  9
$PUCSXDIR
 10
1.0
 20
0.0
 30
0.0
  9
$PUCSYDIR
 10
0.0
 20
1.0
 30
0.0
  9
$PUCSORTHOREF
  2

  9
$PUCSORTHOVIEW
 70
     0
  9
$PUCSORGTOP
 10
0.0
 20
0.0
 30
0.0
  9
$PUCSORGBOTTOM
 10
0.0
 20
0.0
 30
0.0
  9
$PUCSORGLEFT
 10
0.0
 20
0.0
 30
0.0
  9
$PUCSORGRIGHT
 10
0.0
 20
0.0
 30
0.0
  9
$PUCSORGFRONT
 10
0.0
 20
0.0
 30
0.0
  9
$PUCSORGBACK
 10
0.0
 20
0.0
 30
0.0
  9
$USERI1
 70
     0
  9
$USERI2
 70
     0
  9
$USERI3
 70
     0
  9
$USERI4
 70
     0
  9
$USERI5
 70
     0
  9
$USERR1
 40
0.0
  9
$USERR2
 40
0.0
  9
$USERR3
 40
0.0
  9
$USERR4
 40
0.0
  9
$USERR5
 40
0.0
  9
$WORLDVIEW
 70
     1
  9
$SHADEDGE
 70
     3
  9
$SHADEDIF
 70
    70
  9
$TILEMODE
 70
     1
  9
$MAXACTVP
 70
    64
  9
$PINSBASE
 10
0.0
 20
0.0
 30
0.0
  9
$PLIMCHECK
 70
     0
  9
$PEXTMIN
 10
-0.5
 20
-0.5
 30
-0.5
  9
$PEXTMAX
 10
5.0
 20
5.0
 30
5.0
  9
$PLIMMIN
 10
-0.5
 20
-0.5
  9
$PLIMMAX
 10
5.0
 20
5.0
  9
$UNITMODE
 70
     0
  9
$VISRETAIN
 70
     1
  9
$PLINEGEN
 70
     0
  9
$PSLTSCALE
 70
     1
  9
$TREEDEPTH
 70
  3020
  9
$CMLSTYLE
  2
Standard
  9
$CMLJUST
 70
     0
  9
$CMLSCALE
 40
1.0
  9
$PROXYGRAPHICS
 70
     1
  9
$MEASUREMENT
 70
     1
  9
$CELWEIGHT
370
    18
  9
$ENDCAPS
280
     0
  9
$JOINSTYLE
280
     0
  9
$LWDISPLAY
290
     1
  9
$INSUNITS
 70
     4
  9
$HYPERLINKBASE
  1

  9
$STYLESHEET
  1

  9
$XEDIT
290
     1
  9
$CEPSNTYPE
380
     0
  9
$PSTYLEMODE
290
     1
  9
$FINGERPRINTGUID
  2
{AE6D59CB-9583-4C16-B99F-B13F27749FCD}
  9
$VERSIONGUID
  2
{FAEB1C32-E019-11D5-929B-00C0DF256EC4}
  9
$EXTNAMES
290
     1
  9
$PSVPSCALE
 40
0.0
  9
$OLESTARTUP
290
     0
  9
$SORTENTS
280
   127
  9
$INDEXCTL
280
     0
  9
$HIDETEXT
280
     1
  9
$XCLIPFRAME
290
     0
  9
$HALOGAP
280
     0
  9
$OBSCOLOR
 70
   257
  9
$OBSLTYPE
280
     0
  9
$INTERSECTIONDISPLAY
280
     0
  9
$INTERSECTIONCOLOR
 70
   257
  9
$DIMASSOC
280
     2
  9
$PROJECTNAME
  1

  0
ENDSEC
  0
SECTION
  2
CLASSES
  0
CLASS
  1
ACDBDICTIONARYWDFLT
  2
AcDbDictionaryWithDefault
  3
ObjectDBX Classes
 90
        0
 91
        3
280
     0
281
     0
  0
CLASS
  1
VISUALSTYLE
  2
AcDbVisualStyle
  3
ObjectDBX Classes
 90
     4095
 91
        3
280
     0
281
     0
  0
CLASS
  1
MATERIAL
  2
AcDbMaterial
  3
ObjectDBX Classes
 90
     1153
 91
        3
280
     0
281
     0
  0
CLASS
  1
SCALE
  2
AcDbScale
  3
ObjectDBX Classes
 90
     1153
 91
        3
280
     0
281
     0
  0
CLASS
  1
TABLESTYLE
  2
AcDbTableStyle
  3
ObjectDBX Classes
 90
     4095
 91
        3
280
     0
281
     0
  0
CLASS
  1
MLEADERSTYLE
  2
AcDbMLeaderStyle
  3
ACDB_MLEADERSTYLE_CLASS
 90
     4095
 91
        3
280
     0
281
     0
  0
CLASS
  1
SUN
  2
AcDbSun
  3
SCENEOE
 90
     1153
 91
        3
280
     0
281
     0
  0
CLASS
  1
DICTIONARYVAR
  2
AcDbDictionaryVar
  3
ObjectDBX Classes
 90
        0
 91
        3
280
     0
281
     0
  0
CLASS
  1
CELLSTYLEMAP
  2
AcDbCellStyleMap
  3
ObjectDBX Classes
 90
     1152
 91
        3
280
     0
281
     0
  0
ENDSEC
  0
SECTION
  2
TABLES
  0
TABLE
  2
VPORT
  5
8
102
{ACAD_XDICTIONARY
360
1C0
102
}
330
0
100
AcDbSymbolTable
 70
    16
  0
VPORT
  5
29
330
8
100
AcDbSymbolTableRecord
100
AcDbViewportTableRecord
  2
*Active
 70
     0
 10
0.0
 20
0.0
 11
1.0
 21
1.0
 12
564.503367
 22
434.311552
 13
0.0
 23
0.0
 14
0.5
 24
0.5
 15
0.5
 25
0.5
 16
0.0
 26
0.0
 36
1.0
 17
0.0
 27
0.0
 37
0.0
 40
256.910417
 41
0.069117
 42
50.0
 43
1455.513016
 44
-1455.513016
 50
0.0
 51
0.0
 71
     0
 72
   100
 73
     1
 74
     3
 75
     0
 76
     0
 77
     0
 78
     0
281
     0
 65
     1
110
0.0
120
0.0
130
0.0
111
1.0
121
0.0
131
0.0
112
0.0
122
1.0
132
0.0
 79
     0
146
0.0
  0
VPORT
  5
1B1
330
8
100
AcDbSymbolTableRecord
100
AcDbViewportTableRecord
  2
L1
 70
     0
 10
0.0
 20
0.0
 11
1.0
 21
1.0
 12
564.503367
 22
434.311552
 13
0.0
 23
0.0
 14
0.5
 24
0.5
 15
0.5
 25
0.5
 16
0.0
 26
0.0
 36
1.0
 17
0.0
 27
0.0
 37
0.0
 40
256.910417
 41
0.069117
 42
50.0
 43
1455.513016
 44
-1455.513016
 50
0.0
 51
0.0
 71
     0
 72
   100
 73
     1
 74
     3
 75
     0
 76
     0
 77
     0
 78
     0
281
     0
 65
     1
110
0.0
120
0.0
130
0.0
111
1.0
121
0.0
131
0.0
112
0.0
122
1.0
132
0.0
 79
     0
146
0.0
  0
VPORT
  5
1B2
330
8
100
AcDbSymbolTableRecord
100
AcDbViewportTableRecord
  2
L2
 70
     0
 10
0.0
 20
0.0
 11
0.5
 21
1.0
 12
0.0
 22
0.0
 13
0.0
 23
0.0
 14
0.5
 24
0.5
 15
0.5
 25
0.5
 16
0.0
 26
-1.0
 36
0.0
 17
0.0
 27
0.0
 37
0.0
 40
1599.038483
 41
0.011105
 42
50.0
 43
822.955166
 44
-822.955166
 50
0.0
 51
0.0
 71
     0
 72
   100
 73
     1
 74
     3
 75
     0
 76
     0
 77
     0
 78
     0
281
     0
 65
     1
110
0.0
120
0.0
130
0.0
111
1.0
121
0.0
131
0.0
112
0.0
122
1.0
132
0.0
 79
     0
146
0.0
  0
VPORT
  5
1B3
330
8
100
AcDbSymbolTableRecord
100
AcDbViewportTableRecord
  2
L2
 70
     0
 10
0.5
 20
0.0
 11
1.0
 21
1.0
 12
0.0
 22
0.0
 13
0.0
 23
0.0
 14
0.5
 24
0.5
 15
0.5
 25
0.5
 16
1.0
 26
0.0
 36
0.0
 17
0.0
 27
0.0
 37
0.0
 40
1599.038483
 41
0.011105
 42
50.0
 43
809.772658
 44
-809.772658
 50
0.0
 51
0.0
 71
     0
 72
   100
 73
     1
 74
     3
 75
     0
 76
     0
 77
     0
 78
     0
281
     0
 65
     1
110
0.0
120
0.0
130
0.0
111
1.0
121
0.0
131
0.0
112
0.0
122
1.0
132
0.0
 79
     0
146
0.0
  0
VPORT
  5
1B4
330
8
100
AcDbSymbolTableRecord
100
AcDbViewportTableRecord
  2
L3
 70
     0
 10
0.0
 20
0.5
 11
1.0
 21
1.0
 12
564.503367
 22
434.311552
 13
0.0
 23
0.0
 14
0.5
 24
0.5
 15
0.5
 25
0.5
 16
0.0
 26
0.0
 36
1.0
 17
0.0
 27
0.0
 37
0.0
 40
256.910417
 41
0.069117
 42
50.0
 43
1455.513016
 44
-1455.513016
 50
0.0
 51
0.0
 71
     0
 72
   100
 73
     1
 74
     3
 75
     0
 76
     0
 77
     0
 78
     0
281
     0
 65
     1
110
0.0
120
0.0
130
0.0
111
1.0
121
0.0
131
0.0
112
0.0
122
1.0
132
0.0
 79
     0
146
0.0
  0
VPORT
  5
1B5
330
8
100
AcDbSymbolTableRecord
100
AcDbViewportTableRecord
  2
L3
 70
     0
 10
0.0
 20
0.0
 11
1.0
 21
0.5
 12
0.0
 22
0.0
 13
0.0
 23
0.0
 14
0.5
 24
0.5
 15
0.5
 25
0.5
 16
0.0
 26
-1.0
 36
0.0
 17
0.0
 27
0.0
 37
0.0
 40
1599.038483
 41
0.011105
 42
50.0
 43
822.955166
 44
-822.955166
 50
0.0
 51
0.0
 71
     0
 72
   100
 73
     1
 74
     3
 75
     0
 76
     0
 77
     0
 78
     0
281
     0
 65
     1
110
0.0
120
0.0
130
0.0
111
1.0
121
0.0
131
0.0
112
0.0
122
1.0
132
0.0
 79
     0
146
0.0
  0
VPORT
  5
1B6
330
8
100
AcDbSymbolTableRecord
100
AcDbViewportTableRecord
  2
L4
 70
     0
 10
0.0
 20
0.5
 11
0.5
 21
1.0
 12
564.503367
 22
434.311552
 13
0.0
 23
0.0
 14
0.5
 24
0.5
 15
0.5
 25
0.5
 16
0.0
 26
0.0
 36
1.0
 17
0.0
 27
0.0
 37
0.0
 40
256.910417
 41
0.069117
 42
50.0
 43
1455.513016
 44
-1455.513016
 50
0.0
 51
0.0
 71
     0
 72
   100
 73
     1
 74
     3
 75
     0
 76
     0
 77
     0
 78
     0
281
     0
 65
     1
110
0.0
120
0.0
130
0.0
111
1.0
121
0.0
131
0.0
112
0.0
122
1.0
132
0.0
 79
     0
146
0.0
  0
VPORT
  5
1B7
330
8
100
AcDbSymbolTableRecord
100
AcDbViewportTableRecord
  2
L4
 70
     0
 10
0.0
 20
0.0
 11
0.5
 21
0.5
 12
0.0
 22
0.0
 13
0.0
 23
0.0
 14
0.5
 24
0.5
 15
0.5
 25
0.5
 16
0.0
 26
-1.0
 36
0.0
 17
0.0
 27
0.0
 37
0.0
 40
1599.038483
 41
0.011105
 42
50.0
 43
822.955166
 44
-822.955166
 50
0.0
 51
0.0
 71
     0
 72
   100
 73
     1
 74
     3
 75
     0
 76
     0
 77
     0
 78
     0
281
     0
 65
     1
110
0.0
120
0.0
130
0.0
111
1.0
121
0.0
131
0.0
112
0.0
122
1.0
132
0.0
 79
     0
146
0.0
  0
VPORT
  5
1B8
330
8
100
AcDbSymbolTableRecord
100
AcDbViewportTableRecord
  2
L4
 70
     0
 10
0.5
 20
0.0
 11
1.0
 21
0.5
 12
0.0
 22
0.0
 13
0.0
 23
0.0
 14
0.5
 24
0.5
 15
0.5
 25
0.5
 16
1.0
 26
0.0
 36
0.0
 17
0.0
 27
0.0
 37
0.0
 40
1599.038483
 41
0.011105
 42
50.0
 43
809.772658
 44
-809.772658
 50
0.0
 51
0.0
 71
     0
 72
   100
 73
     1
 74
     3
 75
     0
 76
     0
 77
     0
 78
     0
281
     0
 65
     1
110
0.0
120
0.0
130
0.0
111
1.0
121
0.0
131
0.0
112
0.0
122
1.0
132
0.0
 79
     0
146
0.0
  0
VPORT
  5
1B9
330
8
100
AcDbSymbolTableRecord
100
AcDbViewportTableRecord
  2
L4
 70
     0
 10
0.5
 20
0.5
 11
1.0
 21
1.0
 12
0.0
 22
0.0
 13
0.0
 23
0.0
 14
0.5
 24
0.5
 15
0.5
 25
0.5
 16
0.5773502691896258
 26
-0.5773502691896258
 36
0.5773502691896258
 17
0.0
 27
0.0
 37
0.0
 40
1569.707825
 41
0.011312
 42
50.0
 43
817.50023
 44
-817.50023
 50
0.0
 51
0.0
 71
     0
 72
   100
 73
     1
 74
     3
 75
     0
 76
     0
 77
     0
 78
     0
281
     0
 65
     1
110
0.0
120
0.0
130
0.0
111
1.0
121
0.0
131
0.0
112
0.0
122
1.0
132
0.0
 79
     0
146
0.0
  0
VPORT
  5
1BA
330
8
100
AcDbSymbolTableRecord
100
AcDbViewportTableRecord
  2
L6
 70
     0
 10
0.0
 20
0.5
 11
0.333333
 21
1.0
 12
0.0
 22
0.0
 13
0.0
 23
0.0
 14
0.5
 24
0.5
 15
0.5
 25
0.5
 16
0.7188730927569433
 26
-0.5850486126764433
 36
0.3754192287502549
 17
0.0
 27
0.0
 37
0.0
 40
1656.515283
 41
0.010719
 42
50.0
 43
857.679146
 44
-857.679146
 50
0.0
 51
0.0
 71
     0
 72
   100
 73
     1
 74
     3
 75
     0
 76
     0
 77
     0
 78
     0
281
     0
 65
     1
110
0.0
120
0.0
130
0.0
111
1.0
121
0.0
131
0.0
112
0.0
122
1.0
132
0.0
 79
     0
146
0.0
  0
VPORT
  5
1BB
330
8
100
AcDbSymbolTableRecord
100
AcDbViewportTableRecord
  2
L6
 70
     0
 10
0.0
 20
0.0
 11
0.333333
 21
0.5
 12
0.0
 22
0.0
 13
0.0
 23
0.0
 14
0.5
 24
0.5
 15
0.5
 25
0.5
 16
-1.0
 26
0.0
 36
0.0
 17
0.0
 27
0.0
 37
0.0
 40
1599.038483
 41
0.011105
 42
50.0
 43
809.772658
 44
-809.772658
 50
0.0
 51
0.0
 71
     0
 72
   100
 73
     1
 74
     3
 75
     0
 76
     0
 77
     0
 78
     0
281
     0
 65
     1
110
0.0
120
0.0
130
0.0
111
1.0
121
0.0
131
0.0
112
0.0
122
1.0
132
0.0
 79
     0
146
0.0
  0
VPORT
  5
1BC
330
8
100
AcDbSymbolTableRecord
100
AcDbViewportTableRecord
  2
L6
 70
     0
 10
0.333333
 20
0.5
 11
0.666667
 21
1.0
 12
564.503367
 22
434.311552
 13
0.0
 23
0.0
 14
0.5
 24
0.5
 15
0.5
 25
0.5
 16
0.0
 26
0.0
 36
1.0
 17
0.0
 27
0.0
 37
0.0
 40
256.910417
 41
0.069117
 42
50.0
 43
1455.513016
 44
-1455.513016
 50
0.0
 51
0.0
 71
     0
 72
   100
 73
     1
 74
     3
 75
     0
 76
     0
 77
     0
 78
     0
281
     0
 65
     1
110
0.0
120
0.0
130
0.0
111
1.0
121
0.0
131
0.0
112
0.0
122
1.0
132
0.0
 79
     0
146
0.0
  0
VPORT
  5
1BD
330
8
100
AcDbSymbolTableRecord
100
AcDbViewportTableRecord
  2
L6
 70
     0
 10
0.333333
 20
0.0
 11
0.666667
 21
0.5
 12
0.0
 22
0.0
 13
0.0
 23
0.0
 14
0.5
 24
0.5
 15
0.5
 25
0.5
 16
0.0
 26
-1.0
 36
0.0
 17
0.0
 27
0.0
 37
0.0
 40
1599.038483
 41
0.011105
 42
50.0
 43
822.955166
 44
-822.955166
 50
0.0
 51
0.0
 71
     0
 72
   100
 73
     1
 74
     3
 75
     0
 76
     0
 77
     0
 78
     0
281
     0
 65
     1
110
0.0
120
0.0
130
0.0
111
1.0
121
0.0
131
0.0
112
0.0
122
1.0
132
0.0
 79
     0
146
0.0
  0
VPORT
  5
1BE
330
8
100
AcDbSymbolTableRecord
100
AcDbViewportTableRecord
  2
L6
 70
     0
 10
0.666667
 20
0.5
 11
1.0
 21
1.0
 12
0.0
 22
0.0
 13
0.0
 23
0.0
 14
0.5
 24
0.5
 15
0.5
 25
0.5
 16
0.5773502691896258
 26
-0.5773502691896258
 36
0.5773502691896258
 17
0.0
 27
0.0
 37
0.0
 40
1569.707825
 41
0.011312
 42
50.0
 43
817.50023
 44
-817.50023
 50
0.0
 51
0.0
 71
     0
 72
   100
 73
     1
 74
     3
 75
     0
 76
     0
 77
     0
 78
     0
281
     0
 65
     1
110
0.0
120
0.0
130
0.0
111
1.0
121
0.0
131
0.0
112
0.0
122
1.0
132
0.0
 79
     0
146
0.0
  0
VPORT
  5
1BF
330
8
100
AcDbSymbolTableRecord
100
AcDbViewportTableRecord
  2
L6
 70
     0
 10
0.666667
 20
0.0
 11
1.0
 21
0.5
 12
0.0
 22
0.0
 13
0.0
 23
0.0
 14
0.5
 24
0.5
 15
0.5
 25
0.5
 16
1.0
 26
0.0
 36
0.0
 17
0.0
 27
0.0
 37
0.0
 40
1599.038483
 41
0.011105
 42
50.0
 43
809.772658
 44
-809.772658
 50
0.0
 51
0.0
 71
     0
 72
   100
 73
     1
 74
     3
 75
     0
 76
     0
 77
     0
 78
     0
281
     0
 65
     1
110
0.0
120
0.0
130
0.0
111
1.0
121
0.0
131
0.0
112
0.0
122
1.0
132
0.0
 79
     0
146
0.0
  0
ENDTAB
  0
TABLE
  2
LTYPE
  5
5
330
0
100
AcDbSymbolTable
 70
     6
  0
LTYPE
  5
14
330
5
100
AcDbSymbolTableRecord
100
AcDbLinetypeTableRecord
  2
ByBlock
 70
     0
  3

 72
    65
 73
     0
 40
0.0
  0
LTYPE
  5
15
330
5
100
AcDbSymbolTableRecord
100
AcDbLinetypeTableRecord
  2
ByLayer
 70
     0
  3

 72
    65
 73
     0
 40
0.0
  0
LTYPE
  5
16
330
5
100
AcDbSymbolTableRecord
100
AcDbLinetypeTableRecord
  2
Continuous
 70
     0
  3
Solid line
 72
    65
 73
     0
 40
0.0
  0
LTYPE
  5
6E
330
5
100
AcDbSymbolTableRecord
100
AcDbLinetypeTableRecord
  2
CENTER
 70
     0
  3
____ _ ____ _ ____ _ ____
 72
    65
 73
     4
 40
47.4
 49
22.0
 74
     4
 75
     0
340
0
 46
0.0
 50
0.0
 44
0.0
 45
0.0
 49
-8.5
 74
     4
 75
     0
340
0
 46
0.0
 50
0.0
 44
0.0
 45
0.0
 49
8.5
 74
     4
 75
     0
340
0
 46
0.0
 50
0.0
 44
0.0
 45
0.0
 49
-8.5
 74
     4
 75
     0
340
0
 46
0.0
 50
0.0
 44
0.0
 45
0.0
  0
LTYPE
  5
6F
330
5
100
AcDbSymbolTableRecord
100
AcDbLinetypeTableRecord
  2
DASHDOT
 70
     0
  3
_._._._._._._._._._._._._._._._.
 72
    65
 73
     4
 40
70.0
 49
31.0
 74
     4
 75
     0
340
0
 46
0.0
 50
0.0
 44
0.0
 45
0.0
 49
-13.0
 74
     4
 75
     0
340
0
 46
0.0
 50
0.0
 44
0.0
 45
0.0
 49
13.0
 74
     4
 75
     0
340
0
 46
0.0
 50
0.0
 44
0.0
 45
0.0
 49
-13.0
 74
     4
 75
     0
340
0
 46
0.0
 50
0.0
 44
0.0
 45
0.0
  0
LTYPE
  5
70
330
5
100
AcDbSymbolTableRecord
100
AcDbLinetypeTableRecord
  2
DASHED
 70
     0
  3
__ __ __ __ __ __ __ __ __
 72
    65
 73
     2
 40
25.72
 49
12.86
 74
     4
 75
     0
340
0
 46
0.0
 50
0.0
 44
0.0
 45
0.0
 49
-12.86
 74
     4
 75
     0
340
0
 46
0.0
 50
0.0
 44
0.0
 45
0.0
  0
LTYPE
  5
71
330
5
100
AcDbSymbolTableRecord
100
AcDbLinetypeTableRecord
  2
DOT
 70
     0
  3
.........................
 72
    65
 73
     2
 40
10.0
 49
0.0
 74
     4
 75
     0
340
0
 46
0.0
 50
0.0
 44
0.0
 45
0.0
 49
-10.0
 74
     4
 75
     0
340
0
 46
0.0
 50
0.0
 44
0.0
 45
0.0
  0
LTYPE
  5
72
330
5
100
AcDbSymbolTableRecord
100
AcDbLinetypeTableRecord
  2
PHANTOM
 70
     0
  3
____ _ _ ____ _ _ _____ _ _ ____
 72
    65
 73
     6
 40
50.5
 49
18.0
 74
     4
 75
     0
340
0
 46
0.0
 50
0.0
 44
0.0
 45
0.0
 49
-6.5
 74
     4
 75
     0
340
0
 46
0.0
 50
0.0
 44
0.0
 45
0.0
 49
6.5
 74
     4
 75
     0
340
0
 46
0.0
 50
0.0
 44
0.0
 45
0.0
 49
-6.5
 74
     4
 75
     0
340
0
 46
0.0
 50
0.0
 44
0.0
 45
0.0
 49
6.5
 74
     4
 75
     0
340
0
 46
0.0
 50
0.0
 44
0.0
 45
0.0
 49
-6.5
 74
     4
 75
     0
340
0
 46
0.0
 50
0.0
 44
0.0
 45
0.0
  0
ENDTAB
  0
TABLE
  2
LAYER
  5
2
330
0
100
AcDbSymbolTable
 70
     3
  0
LAYER
  5
10
330
2
100
AcDbSymbolTableRecord
100
AcDbLayerTableRecord
  2
0
 70
     0
 62
     7
  6
Continuous
370
    -3
390
F
  0
LAYER
  5
74
330
2
100
AcDbSymbolTableRecord
100
AcDbLayerTableRecord
  2
2
 70
     0
 62
     7
420
 16777215
  6
Continuous
370
    -3
390
F
  0
LAYER
  5
79
330
2
100
AcDbSymbolTableRecord
100
AcDbLayerTableRecord
  2
1
 70
     0
 62
     7
420
 16777215
  6
Continuous
370
    -3
390
F
  0
ENDTAB
  0
TABLE
  2
STYLE
  5
3
330
0
100
AcDbSymbolTable
 70
     1
  0
STYLE
  5
11
330
3
100
AcDbSymbolTableRecord
100
AcDbTextStyleTableRecord
  2
Standard
 70
     0
 40
0.0
 41
1.0
 50
0.0
 71
     0
 42
0.2
  3
txt
  4

  0
ENDTAB
  0
TABLE
  2
VIEW
  5
6
330
0
100
AcDbSymbolTable
 70
     0
  0
ENDTAB
  0
TABLE
  2
UCS
  5
7
330
0
100
AcDbSymbolTable
 70
     0
  0
ENDTAB
  0
TABLE
  2
APPID
  5
9
330
0
100
AcDbSymbolTable
 70
     2
  0
APPID
  5
12
330
9
100
AcDbSymbolTableRecord
100
AcDbRegAppTableRecord
  2
ACAD
 70
     0
  0
APPID
  5
1FF
330
9
100
AcDbSymbolTableRecord
100
AcDbRegAppTableRecord
  2
ACAD_MLEADERVER
 70
     0
  0
ENDTAB
  0
TABLE
  2
DIMSTYLE
  5
A
330
0
100
AcDbSymbolTable
 70
     1
100
AcDbDimStyleTable
  0
DIMSTYLE
105
27
330
A
100
AcDbSymbolTableRecord
100
AcDbDimStyleTableRecord
  2
Standard
 70
     0
178
     0
340
11
  0
ENDTAB
  0
TABLE
  2
BLOCK_RECORD
  5
1
330
0
100
AcDbSymbolTable
 70
     1
  0
BLOCK_RECORD
  5
1F
330
1
100
AcDbSymbolTableRecord
100
AcDbBlockTableRecord
  2
*Model_Space
340
22
  0
BLOCK_RECORD
  5
1B
330
1
100
AcDbSymbolTableRecord
100
AcDbBlockTableRecord
  2
*Paper_Space
340
1E
  0
BLOCK_RECORD
  5
23
330
1
100
AcDbSymbolTableRecord
100
AcDbBlockTableRecord
  2
*Paper_Space0
340
26
  0
ENDTAB
  0
ENDSEC
  0
SECTION
  2
BLOCKS
  0
BLOCK
  5
20
330
1F
100
AcDbEntity
  8
0
100
AcDbBlockBegin
  2
*Model_Space
 70
     0
 10
0.0
 20
0.0
 30
0.0
  3
*Model_Space
  1

  0
ENDBLK
  5
21
330
1F
100
AcDbEntity
  8
0
100
AcDbBlockEnd
  0
BLOCK
  5
1C
330
1B
100
AcDbEntity
 67
     1
  8
0
100
AcDbBlockBegin
  2
*Paper_Space
 70
     0
 10
0.0
 20
0.0
 30
0.0
  3
*Paper_Space
  1

  0
ENDBLK
  5
1D
330
1B
100
AcDbEntity
 67
     1
  8
0
100
AcDbBlockEnd
  0
BLOCK
  5
24
330
23
100
AcDbEntity
  8
0
100
AcDbBlockBegin
  2
*Paper_Space0
 70
     0
 10
0.0
 20
0.0
 30
0.0
  3
*Paper_Space0
  1

  0
ENDBLK
  5
25
330
23
100
AcDbEntity
  8
0
100
AcDbBlockEnd
  0
ENDSEC
  0
SECTION
  2
ENTITIES
  0
LINE
  5
73
330
1F
100
AcDbEntity
  8
2
  6
Continuous
 62
    30
370
    18
100
AcDbLine
 10
335.163895
 20
625.782137
 30
0.0
 11
335.163895
 21
715.782137
 31
0.0
  0
LINE
  5
75
330
1F
100
AcDbEntity
  8
2
  6
Continuous
 62
    30
370
    18
100
AcDbLine
 10
290.163895
 20
715.782137
 30
0.0
 11
290.163895
 21
625.782137
 31
0.0
  0
LINE
  5
76
330
1F
100
AcDbEntity
  8
2
  6
Continuous
 62
    30
370
    18
100
AcDbLine
 10
470.163895
 20
625.782137
 30
0.0
 11
470.163895
 21
715.782137
 31
0.0
  0
LINE
  5
77
330
1F
100
AcDbEntity
  8
2
  6
Continuous
 62
    30
370
    18
100
AcDbLine
 10
425.163895
 20
715.782137
 30
0.0
 11
425.163895
 21
625.782137
 31
0.0
  0
LINE
  5
78
330
1F
100
AcDbEntity
  8
1
  6
Continuous
 62
    30
370
    18
100
AcDbLine
 10
403.163895
 20
608.538952
 30
0.0
 11
402.663895
 21
608.538952
 31
0.0
  0
LINE
  5
7A
330
1F
100
AcDbEntity
  8
1
  6
Continuous
 62
    30
370
    18
100
AcDbLine
 10
357.163895
 20
592.744878
 30
0.0
 11
357.663895
 21
592.744878
 31
0.0
  0
LINE
  5
7B
330
1F
100
AcDbEntity
  8
1
  6
Continuous
 62
    30
370
    18
100
AcDbLine
 10
403.163895
 20
605.342895
 30
0.0
 11
402.663895
 21
605.342895
 31
0.0
  0
LINE
  5
7C
330
1F
100
AcDbEntity
  8
1
  6
Continuous
 62
    30
370
    18
100
AcDbLine
 10
459.693894
 20
505.782137
 30
0.0
 11
461.592618
 21
517.23829
 31
0.0
  0
LINE
  5
7D
330
1F
100
AcDbEntity
  8
1
  6
Continuous
 62
    30
370
    18
100
AcDbLine
 10
298.735172
 20
517.23829
 30
0.0
 11
300.633895
 21
505.782137
 31
0.0
  0
LINE
  5
7E
330
1F
100
AcDbEntity
  8
1
  6
Continuous
 62
    30
370
    18
100
AcDbLine
 10
403.163895
 20
612.920425
 30
0.0
 11
402.663895
 21
612.920425
 31
0.0
  0
LINE
  5
7F
330
1F
100
AcDbEntity
  8
1
  6
Continuous
 62
    30
370
    18
100
AcDbLine
 10
357.663895
 20
612.920425
 30
0.0
 11
357.163895
 21
612.920425
 31
0.0
  0
LINE
  5
80
330
1F
100
AcDbEntity
  8
1
  6
Continuous
 62
    30
370
    18
100
AcDbLine
 10
357.663895
 20
611.017379
 30
0.0
 11
357.163895
 21
611.017379
 31
0.0
  0
LINE
  5
81
330
1F
100
AcDbEntity
  8
1
  6
Continuous
 62
    30
370
    18
100
AcDbLine
 10
357.163895
 20
604.997249
 30
0.0
 11
357.663895
 21
604.997249
 31
0.0
  0
LINE
  5
82
330
1F
100
AcDbEntity
  8
1
  6
Continuous
 62
    30
370
    18
100
AcDbLine
 10
357.663895
 20
608.747249
 30
0.0
 11
357.163895
 21
608.747249
 31
0.0
  0
LINE
  5
83
330
1F
100
AcDbEntity
  8
1
  6
Continuous
 62
   252
370
    18
100
AcDbLine
 10
459.693894
 20
447.11547
 30
0.0
 11
459.693894
 21
505.782137
 31
0.0
  0
LINE
  5
84
330
1F
100
AcDbEntity
  8
1
  6
Continuous
 62
   252
370
    18
100
AcDbLine
 10
300.633895
 20
505.782137
 30
0.0
 11
300.633895
 21
447.11547
 31
0.0
  0
LINE
  5
85
330
1F
100
AcDbEntity
  8
1
  6
Continuous
 62
   252
370
    18
100
AcDbLine
 10
430.163895
 20
268.782137
 30
0.0
 11
430.163895
 21
416.782137
 31
0.0
  0
LINE
  5
86
330
1F
100
AcDbEntity
  8
1
  6
Continuous
 62
   252
370
    18
100
AcDbLine
 10
330.163895
 20
416.782137
 30
0.0
 11
330.163895
 21
268.782137
 31
0.0
  0
LINE
  5
87
330
1F
100
AcDbEntity
  8
1
  6
Continuous
 62
   252
370
    18
100
AcDbLine
 10
429.163895
 20
267.782137
 30
0.0
 11
430.163895
 21
268.782137
 31
0.0
  0
LINE
  5
88
330
1F
100
AcDbEntity
  8
1
  6
Continuous
 62
   252
370
    18
100
AcDbLine
 10
330.163895
 20
268.782137
 30
0.0
 11
331.163895
 21
267.782137
 31
0.0
  0
LINE
  5
89
330
1F
100
AcDbEntity
  8
1
  6
Continuous
 62
   252
370
    18
100
AcDbLine
 10
295.163895
 20
447.11547
 30
0.0
 11
295.163895
 21
418.782137
 31
0.0
  0
LINE
  5
8A
330
1F
100
AcDbEntity
  8
1
  6
Continuous
 62
   252
370
    18
100
AcDbLine
 10
465.163895
 20
418.782137
 30
0.0
 11
465.163895
 21
447.11547
 31
0.0
  0
LINE
  5
8B
330
1F
100
AcDbEntity
  8
2
  6
Continuous
 62
    30
370
    13
100
AcDbLine
 10
470.163895
 20
625.782137
 30
0.0
 11
425.163895
 21
625.782137
 31
0.0
  0
LINE
  5
8C
330
1F
100
AcDbEntity
  8
2
  6
Continuous
 62
    30
370
    13
100
AcDbLine
 10
290.163895
 20
625.782137
 30
0.0
 11
335.163895
 21
625.782137
 31
0.0
  0
LINE
  5
8D
330
1F
100
AcDbEntity
  8
2
  6
Continuous
 62
    30
370
    13
100
AcDbLine
 10
470.163895
 20
715.782137
 30
0.0
 11
425.163895
 21
715.782137
 31
0.0
  0
LINE
  5
8E
330
1F
100
AcDbEntity
  8
2
  6
Continuous
 62
    30
370
    13
100
AcDbLine
 10
290.163895
 20
715.782137
 30
0.0
 11
335.163895
 21
715.782137
 31
0.0
  0
LINE
  5
8F
330
1F
100
AcDbEntity
  8
1
  6
Continuous
 62
    30
370
    18
100
AcDbLine
 10
357.163895
 20
591.686232
 30
0.0
 11
357.663895
 21
591.686232
 31
0.0
  0
LINE
  5
90
330
1F
100
AcDbEntity
  8
1
  6
Continuous
 62
    30
370
    18
100
AcDbLine
 10
357.163895
 20
592.349313
 30
0.0
 11
357.663895
 21
592.349313
 31
0.0
  0
LINE
  5
91
330
1F
100
AcDbEntity
  8
1
  6
Continuous
 62
    30
370
    18
100
AcDbLine
 10
403.163895
 20
612.920425
 30
0.0
 11
403.163895
 21
609.689113
 31
0.0
  0
LINE
  5
92
330
1F
100
AcDbEntity
  8
1
  6
Continuous
 62
    30
370
    18
100
AcDbLine
 10
403.163895
 20
609.665496
 30
0.0
 11
402.663895
 21
609.665496
 31
0.0
  0
LINE
  5
93
330
1F
100
AcDbEntity
  8
1
  6
Continuous
 62
    30
370
    18
100
AcDbLine
 10
403.163895
 20
609.664626
 30
0.0
 11
403.163895
 21
609.66234
 31
0.0
  0
LINE
  5
94
330
1F
100
AcDbEntity
  8
1
  6
Continuous
 62
    30
370
    18
100
AcDbLine
 10
403.163895
 20
609.664626
 30
0.0
 11
402.663895
 21
609.664626
 31
0.0
  0
LINE
  5
95
330
1F
100
AcDbEntity
  8
1
  6
Continuous
 62
    30
370
    18
100
AcDbLine
 10
403.163895
 20
609.662381
 30
0.0
 11
402.663895
 21
609.662381
 31
0.0
  0
LINE
  5
96
330
1F
100
AcDbEntity
  8
1
  6
Continuous
 62
    30
370
    18
100
AcDbLine
 10
403.163895
 20
609.661464
 30
0.0
 11
403.163895
 21
609.659236
 31
0.0
  0
LINE
  5
97
330
1F
100
AcDbEntity
  8
1
  6
Continuous
 62
    30
370
    18
100
AcDbLine
 10
403.163895
 20
609.661464
 30
0.0
 11
402.663895
 21
609.661464
 31
0.0
  0
LINE
  5
98
330
1F
100
AcDbEntity
  8
1
  6
Continuous
 62
    30
370
    18
100
AcDbLine
 10
403.163895
 20
609.659208
 30
0.0
 11
402.663895
 21
609.659208
 31
0.0
  0
LINE
  5
99
330
1F
100
AcDbEntity
  8
1
  6
Continuous
 62
    30
370
    18
100
AcDbLine
 10
403.163895
 20
609.658284
 30
0.0
 11
402.663895
 21
609.658284
 31
0.0
  0
LINE
  5
9A
330
1F
100
AcDbEntity
  8
1
  6
Continuous
 62
    30
370
    18
100
AcDbLine
 10
357.163895
 20
592.750172
 30
0.0
 11
357.663895
 21
592.750172
 31
0.0
  0
LINE
  5
9B
330
1F
100
AcDbEntity
  8
1
  6
Continuous
 62
    30
370
    18
100
AcDbLine
 10
357.163895
 20
612.920425
 30
0.0
 11
357.163895
 21
611.045425
 31
0.0
  0
LINE
  5
9C
330
1F
100
AcDbEntity
  8
1
  6
Continuous
 62
    30
370
    13
100
AcDbLine
 10
403.163895
 20
604.947218
 30
0.0
 11
402.663895
 21
604.947218
 31
0.0
  0
LINE
  5
9D
330
1F
100
AcDbEntity
  8
1
  6
Continuous
 62
    30
370
    18
100
AcDbLine
 10
357.163895
 20
593.500054
 30
0.0
 11
357.663895
 21
593.500054
 31
0.0
  0
LINE
  5
9E
330
1F
100
AcDbEntity
  8
1
  6
Continuous
 62
    30
370
    18
100
AcDbLine
 10
357.163895
 20
603.643586
 30
0.0
 11
357.663895
 21
603.643586
 31
0.0
  0
LINE
  5
9F
330
1F
100
AcDbEntity
  8
1
  6
Continuous
 62
    30
370
    18
100
AcDbLine
 10
357.163895
 20
603.033107
 30
0.0
 11
357.663895
 21
603.033107
 31
0.0
  0
LINE
  5
A0
330
1F
100
AcDbEntity
  8
1
  6
Continuous
 62
    30
370
    18
100
AcDbLine
 10
403.163895
 20
591.686232
 30
0.0
 11
402.663895
 21
591.686232
 31
0.0
  0
LINE
  5
A1
330
1F
100
AcDbEntity
  8
1
  6
Continuous
 62
    30
370
    18
100
AcDbLine
 10
403.163895
 20
603.026862
 30
0.0
 11
402.663895
 21
603.026862
 31
0.0
  0
LINE
  5
A2
330
1F
100
AcDbEntity
  8
1
  6
Continuous
 62
    30
370
    18
100
AcDbLine
 10
403.163895
 20
603.630541
 30
0.0
 11
402.663895
 21
603.630541
 31
0.0
  0
LINE
  5
A3
330
1F
100
AcDbEntity
  8
1
  6
Continuous
 62
    30
370
    18
100
AcDbLine
 10
357.163895
 20
611.017379
 30
0.0
 11
357.163895
 21
609.142379
 31
0.0
  0
LINE
  5
A4
330
1F
100
AcDbEntity
  8
1
  6
Continuous
 62
    30
370
    18
100
AcDbLine
 10
357.163895
 20
609.142379
 30
0.0
 11
357.163895
 21
608.747205
 31
0.0
  0
LINE
  5
A5
330
1F
100
AcDbEntity
  8
1
  6
Continuous
 62
    30
370
    18
100
AcDbLine
 10
357.163895
 20
608.747249
 30
0.0
 11
357.163895
 21
606.872249
 31
0.0
  0
LINE
  5
A6
330
1F
100
AcDbEntity
  8
1
  6
Continuous
 62
    30
370
    18
100
AcDbLine
 10
357.163895
 20
606.872249
 30
0.0
 11
357.163895
 21
604.997249
 31
0.0
  0
LINE
  5
A7
330
1F
100
AcDbEntity
  8
1
  6
Continuous
 62
    30
370
    18
100
AcDbLine
 10
311.066948
 20
531.782137
 30
0.0
 11
335.163895
 21
531.782137
 31
0.0
  0
LINE
  5
A8
330
1F
100
AcDbEntity
  8
1
  6
Continuous
 62
    30
370
    18
100
AcDbLine
 10
357.663895
 20
617.58917
 30
0.0
 11
357.663895
 21
554.282137
 31
0.0
  0
LINE
  5
A9
330
1F
100
AcDbEntity
  8
1
  6
Continuous
 62
    30
370
    13
100
AcDbLine
 10
368.439757
 20
555.747654
 30
0.0
 11
368.439757
 21
629.969693
 31
0.0
  0
LINE
  5
AA
330
1F
100
AcDbEntity
  8
1
  6
Continuous
 62
    30
370
    13
100
AcDbLine
 10
298.735172
 20
517.23829
 30
0.0
 11
327.132717
 21
517.23829
 31
0.0
  0
LINE
  5
AB
330
1F
100
AcDbEntity
  8
1
  6
Continuous
 62
    30
370
    18
100
AcDbLine
 10
449.260842
 20
531.782137
 30
0.0
 11
425.163895
 21
531.782137
 31
0.0
  0
LINE
  5
AC
330
1F
100
AcDbEntity
  8
1
  6
Continuous
 62
    30
370
    18
100
AcDbLine
 10
402.663895
 20
617.58917
 30
0.0
 11
402.663895
 21
554.282137
 31
0.0
  0
LINE
  5
AD
330
1F
100
AcDbEntity
  8
1
  6
Continuous
 62
    30
370
    13
100
AcDbLine
 10
391.888033
 20
555.747654
 30
0.0
 11
391.888033
 21
629.969693
 31
0.0
  0
LINE
  5
AE
330
1F
100
AcDbEntity
  8
1
  6
Continuous
 62
    30
370
    18
100
AcDbLine
 10
459.693894
 20
505.782137
 30
0.0
 11
300.633895
 21
505.782137
 31
0.0
  0
LINE
  5
AF
330
1F
100
AcDbEntity
  8
1
  6
Continuous
 62
    30
370
    13
100
AcDbLine
 10
461.592618
 20
517.23829
 30
0.0
 11
433.195073
 21
517.23829
 31
0.0
  0
LINE
  5
B0
330
1F
100
AcDbEntity
  8
1
  6
Continuous
 62
    30
370
    13
100
AcDbLine
 10
399.540581
 20
531.883975
 30
0.0
 11
360.787209
 21
531.883975
 31
0.0
  0
LINE
  5
B1
330
1F
100
AcDbEntity
  8
1
  6
Continuous
 62
   252
370
    18
100
AcDbLine
 10
459.693894
 20
505.782137
 30
0.0
 11
459.296767
 21
505.782137
 31
0.0
  0
LINE
  5
B2
330
1F
100
AcDbEntity
  8
1
  6
Continuous
 62
   252
370
    18
100
AcDbLine
 10
301.031023
 20
505.782137
 30
0.0
 11
300.633895
 21
505.782137
 31
0.0
  0
LINE
  5
B3
330
1F
100
AcDbEntity
  8
1
  6
Continuous
 62
   252
370
    18
100
AcDbLine
 10
331.163895
 20
267.782137
 30
0.0
 11
380.163895
 21
267.782137
 31
0.0
  0
LINE
  5
B4
330
1F
100
AcDbEntity
  8
1
  6
Continuous
 62
   252
370
    18
100
AcDbLine
 10
380.163895
 20
267.782137
 30
0.0
 11
429.163895
 21
267.782137
 31
0.0
  0
LINE
  5
B5
330
1F
100
AcDbEntity
  8
1
  6
Continuous
 62
   252
370
    18
100
AcDbLine
 10
430.163895
 20
268.782137
 30
0.0
 11
380.163895
 21
268.782137
 31
0.0
  0
LINE
  5
B6
330
1F
100
AcDbEntity
  8
1
  6
Continuous
 62
   252
370
    18
100
AcDbLine
 10
380.163895
 20
268.782137
 30
0.0
 11
330.163895
 21
268.782137
 31
0.0
  0
LINE
  5
B7
330
1F
100
AcDbEntity
  8
1
  6
Continuous
 62
   252
370
    13
100
AcDbLine
 10
430.163895
 20
416.782137
 30
0.0
 11
330.163895
 21
416.782137
 31
0.0
  0
LINE
  5
B8
330
1F
100
AcDbEntity
  8
1
  6
Continuous
 62
   252
370
    18
100
AcDbLine
 10
301.031023
 20
447.11547
 30
0.0
 11
301.031023
 21
505.782137
 31
0.0
  0
LINE
  5
B9
330
1F
100
AcDbEntity
  8
1
  6
Continuous
 62
   252
370
    18
100
AcDbLine
 10
459.296767
 20
505.782137
 30
0.0
 11
459.296767
 21
447.11547
 31
0.0
  0
LINE
  5
BA
330
1F
100
AcDbEntity
  8
1
  6
Continuous
 62
   252
370
    18
100
AcDbLine
 10
426.604706
 20
505.782137
 30
0.0
 11
412.855956
 21
505.782137
 31
0.0
  0
LINE
  5
BB
330
1F
100
AcDbEntity
  8
1
  6
Continuous
 62
   252
370
    18
100
AcDbLine
 10
426.604706
 20
447.11547
 30
0.0
 11
426.604706
 21
505.782137
 31
0.0
  0
LINE
  5
BC
330
1F
100
AcDbEntity
  8
1
  6
Continuous
 62
   252
370
    18
100
AcDbLine
 10
412.855956
 20
505.782137
 30
0.0
 11
412.855956
 21
447.11547
 31
0.0
  0
LINE
  5
BD
330
1F
100
AcDbEntity
  8
1
  6
Continuous
 62
   252
370
    18
100
AcDbLine
 10
347.471834
 20
447.11547
 30
0.0
 11
347.471834
 21
505.782137
 31
0.0
  0
LINE
  5
BE
330
1F
100
AcDbEntity
  8
1
  6
Continuous
 62
   252
370
    18
100
AcDbLine
 10
347.471834
 20
505.782137
 30
0.0
 11
333.723083
 21
505.782137
 31
0.0
  0
LINE
  5
BF
330
1F
100
AcDbEntity
  8
1
  6
Continuous
 62
   252
370
    18
100
AcDbLine
 10
333.723083
 20
505.782137
 30
0.0
 11
333.723083
 21
447.11547
 31
0.0
  0
LINE
  5
C0
330
1F
100
AcDbEntity
  8
1
  6
Continuous
 62
   252
370
    18
100
AcDbLine
 10
465.163895
 20
447.11547
 30
0.0
 11
295.163895
 21
447.11547
 31
0.0
  0
LINE
  5
C1
330
1F
100
AcDbEntity
  8
1
  6
Continuous
 62
   252
370
    13
100
AcDbLine
 10
465.163895
 20
418.782137
 30
0.0
 11
295.163895
 21
418.782137
 31
0.0
  0
LINE
  5
C2
330
1F
100
AcDbEntity
  8
1
  6
Continuous
 62
   252
370
    18
100
AcDbLine
 10
464.163895
 20
417.782137
 30
0.0
 11
296.163895
 21
417.782137
 31
0.0
  0
LINE
  5
C3
330
1F
100
AcDbEntity
  8
2
  6
Continuous
 62
    30
370
    18
100
AcDbLine
 10
776.342839
 20
715.782137
 30
0.0
 11
776.342839
 21
783.282137
 31
0.0
  0
LINE
  5
C4
330
1F
100
AcDbEntity
  8
2
  6
Continuous
 62
    30
370
    18
100
AcDbLine
 10
731.342839
 20
783.282137
 30
0.0
 11
731.342839
 21
715.782137
 31
0.0
  0
LINE
  5
C5
330
1F
100
AcDbEntity
  8
2
  6
Continuous
 62
    30
370
    18
100
AcDbLine
 10
731.342839
 20
625.782137
 30
0.0
 11
731.342839
 21
558.282137
 31
0.0
  0
LINE
  5
C6
330
1F
100
AcDbEntity
  8
2
  6
Continuous
 62
    30
370
    18
100
AcDbLine
 10
776.342839
 20
558.282137
 30
0.0
 11
776.342839
 21
625.782137
 31
0.0
  0
LINE
  5
C7
330
1F
100
AcDbEntity
  8
2
  6
Continuous
 62
    30
370
    18
100
AcDbLine
 10
776.342839
 20
625.782137
 30
0.0
 11
776.342839
 21
715.782137
 31
0.0
  0
LINE
  5
C8
330
1F
100
AcDbEntity
  8
2
  6
Continuous
 62
    30
370
    18
100
AcDbLine
 10
731.342839
 20
715.782137
 30
0.0
 11
731.342839
 21
625.782137
 31
0.0
  0
LINE
  5
C9
330
1F
100
AcDbEntity
  8
1
  6
Continuous
 62
    30
370
    18
100
AcDbLine
 10
669.986765
 20
531.883975
 30
0.0
 11
674.312839
 21
505.782137
 31
0.0
  0
LINE
  5
CA
330
1F
100
AcDbEntity
  8
1
  6
Continuous
 62
    30
370
    18
100
AcDbLine
 10
833.372838
 20
505.782137
 30
0.0
 11
837.698912
 21
531.883975
 31
0.0
  0
LINE
  5
CB
330
1F
100
AcDbEntity
  8
1
  6
Continuous
 62
   252
370
    18
100
AcDbLine
 10
803.842839
 20
268.782137
 30
0.0
 11
803.842839
 21
416.782137
 31
0.0
  0
LINE
  5
CC
330
1F
100
AcDbEntity
  8
1
  6
Continuous
 62
   252
370
    18
100
AcDbLine
 10
703.842839
 20
416.782137
 30
0.0
 11
703.842839
 21
268.782137
 31
0.0
  0
LINE
  5
CD
330
1F
100
AcDbEntity
  8
1
  6
Continuous
 62
   252
370
    18
100
AcDbLine
 10
802.842839
 20
267.782137
 30
0.0
 11
803.842839
 21
268.782137
 31
0.0
  0
LINE
  5
CE
330
1F
100
AcDbEntity
  8
1
  6
Continuous
 62
   252
370
    18
100
AcDbLine
 10
703.842839
 20
268.782137
 30
0.0
 11
704.842839
 21
267.782137
 31
0.0
  0
LINE
  5
CF
330
1F
100
AcDbEntity
  8
1
  6
Continuous
 62
   252
370
    18
100
AcDbLine
 10
668.842839
 20
447.11547
 30
0.0
 11
668.842839
 21
418.782137
 31
0.0
  0
LINE
  5
D0
330
1F
100
AcDbEntity
  8
1
  6
Continuous
 62
   252
370
    18
100
AcDbLine
 10
838.842839
 20
418.782137
 30
0.0
 11
838.842839
 21
447.11547
 31
0.0
  0
LINE
  5
D1
330
1F
100
AcDbEntity
  8
2
  6
Continuous
 62
    30
370
    13
100
AcDbLine
 10
776.342839
 20
625.782137
 30
0.0
 11
753.842839
 21
625.782137
 31
0.0
  0
LINE
  5
D2
330
1F
100
AcDbEntity
  8
2
  6
Continuous
 62
    30
370
    13
100
AcDbLine
 10
753.842839
 20
625.782137
 30
0.0
 11
731.342839
 21
625.782137
 31
0.0
  0
LINE
  5
D3
330
1F
100
AcDbEntity
  8
2
  6
Continuous
 62
    30
370
    13
100
AcDbLine
 10
776.342839
 20
715.782137
 30
0.0
 11
753.842839
 21
715.782137
 31
0.0
  0
LINE
  5
D4
330
1F
100
AcDbEntity
  8
2
  6
Continuous
 62
    30
370
    13
100
AcDbLine
 10
753.842839
 20
715.782137
 30
0.0
 11
731.342839
 21
715.782137
 31
0.0
  0
LINE
  5
D5
330
1F
100
AcDbEntity
  8
1
  6
Continuous
 62
    30
370
    13
100
AcDbLine
 10
682.540665
 20
554.282137
 30
0.0
 11
670.247186
 21
555.747654
 31
0.0
  0
LINE
  5
D6
330
1F
100
AcDbEntity
  8
1
  6
Continuous
 62
    30
370
    13
100
AcDbLine
 10
825.145012
 20
554.282137
 30
0.0
 11
837.438491
 21
555.747654
 31
0.0
  0
LINE
  5
D7
330
1F
100
AcDbEntity
  8
1
  6
Continuous
 62
    30
370
    13
100
AcDbLine
 10
682.540665
 20
554.282137
 30
0.0
 11
716.896932
 21
554.282137
 31
0.0
  0
LINE
  5
D8
330
1F
100
AcDbEntity
  8
1
  6
Continuous
 62
    30
370
    13
100
AcDbLine
 10
790.788745
 20
554.282137
 30
0.0
 11
825.145012
 21
554.282137
 31
0.0
  0
LINE
  5
D9
330
1F
100
AcDbEntity
  8
1
  6
Continuous
 62
    30
370
    13
100
AcDbLine
 10
729.378657
 20
554.957813
 30
0.0
 11
716.896932
 21
554.282137
 31
0.0
  0
LINE
  5
DA
330
1F
100
AcDbEntity
  8
1
  6
Continuous
 62
    30
370
    13
100
AcDbLine
 10
778.30702
 20
554.957813
 30
0.0
 11
790.788745
 21
554.282137
 31
0.0
  0
LINE
  5
DB
330
1F
100
AcDbEntity
  8
1
  6
Continuous
 62
    30
370
    18
100
AcDbLine
 10
701.408231
 20
531.782137
 30
0.0
 11
806.277447
 21
531.782137
 31
0.0
  0
LINE
  5
DC
330
1F
100
AcDbEntity
  8
1
  6
Continuous
 62
    30
370
    13
100
AcDbLine
 10
815.635484
 20
517.23829
 30
0.0
 11
692.050193
 21
517.23829
 31
0.0
  0
LINE
  5
DD
330
1F
100
AcDbEntity
  8
1
  6
Continuous
 62
    30
370
    18
100
AcDbLine
 10
674.312839
 20
505.782137
 30
0.0
 11
833.372838
 21
505.782137
 31
0.0
  0
LINE
  5
DE
330
1F
100
AcDbEntity
  8
1
  6
Continuous
 62
    30
370
    13
100
AcDbLine
 10
669.986765
 20
531.883975
 30
0.0
 11
672.256166
 21
531.883975
 31
0.0
  0
LINE
  5
DF
330
1F
100
AcDbEntity
  8
1
  6
Continuous
 62
    30
370
    13
100
AcDbLine
 10
837.698912
 20
531.883975
 30
0.0
 11
835.429511
 21
531.883975
 31
0.0
  0
LINE
  5
E0
330
1F
100
AcDbEntity
  8
1
  6
Continuous
 62
   252
370
    18
100
AcDbLine
 10
802.842839
 20
267.782137
 30
0.0
 11
704.842839
 21
267.782137
 31
0.0
  0
LINE
  5
E1
330
1F
100
AcDbEntity
  8
1
  6
Continuous
 62
   252
370
    18
100
AcDbLine
 10
803.842839
 20
268.782137
 30
0.0
 11
703.842839
 21
268.782137
 31
0.0
  0
LINE
  5
E2
330
1F
100
AcDbEntity
  8
1
  6
Continuous
 62
   252
370
    13
100
AcDbLine
 10
803.842839
 20
416.782137
 30
0.0
 11
703.842839
 21
416.782137
 31
0.0
  0
LINE
  5
E3
330
1F
100
AcDbEntity
  8
1
  6
Continuous
 62
   252
370
    18
100
AcDbLine
 10
689.280683
 20
505.782137
 30
0.0
 11
681.342839
 21
505.782137
 31
0.0
  0
LINE
  5
E4
330
1F
100
AcDbEntity
  8
1
  6
Continuous
 62
   252
370
    18
100
AcDbLine
 10
681.342839
 20
505.782137
 30
0.0
 11
681.342839
 21
447.11547
 31
0.0
  0
LINE
  5
E5
330
1F
100
AcDbEntity
  8
1
  6
Continuous
 62
   252
370
    18
100
AcDbLine
 10
826.342839
 20
505.782137
 30
0.0
 11
818.404994
 21
505.782137
 31
0.0
  0
LINE
  5
E6
330
1F
100
AcDbEntity
  8
1
  6
Continuous
 62
   252
370
    18
100
AcDbLine
 10
826.342839
 20
447.11547
 30
0.0
 11
826.342839
 21
505.782137
 31
0.0
  0
LINE
  5
E7
330
1F
100
AcDbEntity
  8
1
  6
Continuous
 62
   252
370
    18
100
AcDbLine
 10
818.404994
 20
505.782137
 30
0.0
 11
818.404994
 21
447.11547
 31
0.0
  0
LINE
  5
E8
330
1F
100
AcDbEntity
  8
1
  6
Continuous
 62
   252
370
    18
100
AcDbLine
 10
689.280683
 20
447.11547
 30
0.0
 11
689.280683
 21
505.782137
 31
0.0
  0
LINE
  5
E9
330
1F
100
AcDbEntity
  8
1
  6
Continuous
 62
   252
370
    18
100
AcDbLine
 10
761.780683
 20
447.11547
 30
0.0
 11
761.780683
 21
505.782137
 31
0.0
  0
LINE
  5
EA
330
1F
100
AcDbEntity
  8
1
  6
Continuous
 62
   252
370
    18
100
AcDbLine
 10
761.780683
 20
505.782137
 30
0.0
 11
745.904994
 21
505.782137
 31
0.0
  0
LINE
  5
EB
330
1F
100
AcDbEntity
  8
1
  6
Continuous
 62
   252
370
    18
100
AcDbLine
 10
745.904994
 20
505.782137
 30
0.0
 11
745.904994
 21
447.11547
 31
0.0
  0
LINE
  5
EC
330
1F
100
AcDbEntity
  8
1
  6
Continuous
 62
   252
370
    18
100
AcDbLine
 10
838.842839
 20
447.11547
 30
0.0
 11
668.842839
 21
447.11547
 31
0.0
  0
LINE
  5
ED
330
1F
100
AcDbEntity
  8
1
  6
Continuous
 62
   252
370
    13
100
AcDbLine
 10
668.842839
 20
418.782137
 30
0.0
 11
838.842839
 21
418.782137
 31
0.0
  0
LINE
  5
EE
330
1F
100
AcDbEntity
  8
1
  6
Continuous
 62
   252
370
    18
100
AcDbLine
 10
837.842839
 20
417.782137
 30
0.0
 11
669.842839
 21
417.782137
 31
0.0
  0
LINE
  5
EF
330
1F
100
AcDbEntity
  8
2
  6
Continuous
 62
    30
370
    18
100
AcDbLine
 10
312.663895
 20
125.340966
 30
0.0
 11
447.663895
 21
125.340966
 31
0.0
  0
LINE
  5
F0
330
1F
100
AcDbEntity
  8
2
  6
Continuous
 62
    30
370
    18
100
AcDbLine
 10
447.663895
 20
170.340966
 30
0.0
 11
312.663895
 21
170.340966
 31
0.0
  0
LINE
  5
F1
330
1F
100
AcDbEntity
  8
1
  6
Continuous
 62
    30
370
    18
100
AcDbLine
 10
403.163895
 20
174.776788
 30
0.0
 11
402.663895
 21
174.776788
 31
0.0
  0
LINE
  5
F2
330
1F
100
AcDbEntity
  8
1
  6
Continuous
 62
    30
370
    18
100
AcDbLine
 10
402.663895
 20
171.026788
 30
0.0
 11
403.163895
 21
171.026788
 31
0.0
  0
LINE
  5
F3
330
1F
100
AcDbEntity
  8
1
  6
Continuous
 62
    30
370
    18
100
AcDbLine
 10
357.163895
 20
120.905144
 30
0.0
 11
357.663895
 21
120.905144
 31
0.0
  0
LINE
  5
F4
330
1F
100
AcDbEntity
  8
1
  6
Continuous
 62
    30
370
    18
100
AcDbLine
 10
357.663895
 20
124.655144
 30
0.0
 11
357.163895
 21
124.655144
 31
0.0
  0
LINE
  5
F5
330
1F
100
AcDbEntity
  8
1
  6
Continuous
 62
    30
370
    18
100
AcDbLine
 10
403.163895
 20
179.090966
 30
0.0
 11
402.663895
 21
179.090966
 31
0.0
  0
LINE
  5
F6
330
1F
100
AcDbEntity
  8
1
  6
Continuous
 62
    30
370
    18
100
AcDbLine
 10
402.663895
 20
175.340966
 30
0.0
 11
403.163895
 21
175.340966
 31
0.0
  0
LINE
  5
F7
330
1F
100
AcDbEntity
  8
1
  6
Continuous
 62
    30
370
    18
100
AcDbLine
 10
357.163895
 20
116.590966
 30
0.0
 11
357.663895
 21
116.590966
 31
0.0
  0
LINE
  5
F8
330
1F
100
AcDbEntity
  8
1
  6
Continuous
 62
    30
370
    18
100
AcDbLine
 10
357.663895
 20
120.340966
 30
0.0
 11
357.163895
 21
120.340966
 31
0.0
  0
LINE
  5
F9
330
1F
100
AcDbEntity
  8
1
  6
Continuous
 62
    30
370
    18
100
AcDbLine
 10
367.200242
 20
231.846572
 30
0.0
 11
367.209543
 21
231.848018
 31
0.0
  0
LINE
  5
FA
330
1F
100
AcDbEntity
  8
1
  6
Continuous
 62
    30
370
    18
100
AcDbLine
 10
393.127547
 20
63.83536
 30
0.0
 11
393.118246
 21
63.833914
 31
0.0
  0
LINE
  5
FB
330
1F
100
AcDbEntity
  8
1
  6
Continuous
 62
    30
370
    13
100
AcDbLine
 10
327.023159
 20
209.76127
 30
0.0
 11
335.163895
 21
200.275574
 31
0.0
  0
LINE
  5
FC
330
1F
100
AcDbEntity
  8
1
  6
Continuous
 62
    30
370
    13
100
AcDbLine
 10
327.023159
 20
85.920663
 30
0.0
 11
335.163895
 21
95.406358
 31
0.0
  0
LINE
  5
FD
330
1F
100
AcDbEntity
  8
1
  6
Continuous
 62
    30
370
    13
100
AcDbLine
 10
335.163895
 20
95.406358
 30
0.0
 11
335.163895
 21
125.340784
 31
0.0
  0
LINE
  5
FE
330
1F
100
AcDbEntity
  8
1
  6
Continuous
 62
    30
370
    13
100
AcDbLine
 10
335.163895
 20
170.341148
 30
0.0
 11
335.163895
 21
200.275574
 31
0.0
  0
LINE
  5
FF
330
1F
100
AcDbEntity
  8
1
  6
Continuous
 62
    30
370
    18
100
AcDbLine
 10
403.163895
 20
121.797346
 30
0.0
 11
402.663895
 21
121.797346
 31
0.0
  0
LINE
  5
100
330
1F
100
AcDbEntity
  8
1
  6
Continuous
 62
    30
370
    18
100
AcDbLine
 10
357.163895
 20
172.101678
 30
0.0
 11
357.663895
 21
172.101678
 31
0.0
  0
LINE
  5
101
330
1F
100
AcDbEntity
  8
1
  6
Continuous
 62
    30
370
    18
100
AcDbLine
 10
357.163895
 20
173.884586
 30
0.0
 11
357.663895
 21
173.884586
 31
0.0
  0
LINE
  5
102
330
1F
100
AcDbEntity
  8
1
  6
Continuous
 62
    30
370
    18
100
AcDbLine
 10
357.163895
 20
172.597221
 30
0.0
 11
357.663895
 21
172.597221
 31
0.0
  0
LINE
  5
103
330
1F
100
AcDbEntity
  8
1
  6
Continuous
 62
    30
370
    18
100
AcDbLine
 10
403.163895
 20
123.084711
 30
0.0
 11
402.663895
 21
123.084711
 31
0.0
  0
LINE
  5
104
330
1F
100
AcDbEntity
  8
1
  6
Continuous
 62
    30
370
    18
100
AcDbLine
 10
403.163895
 20
123.580254
 30
0.0
 11
402.663895
 21
123.580254
 31
0.0
  0
LINE
  5
105
330
1F
100
AcDbEntity
  8
1
  6
Continuous
 62
    30
370
    18
100
AcDbLine
 10
403.163895
 20
123.612659
 30
0.0
 11
402.663895
 21
123.612659
 31
0.0
  0
LINE
  5
106
330
1F
100
AcDbEntity
  8
1
  6
Continuous
 62
    30
370
    18
100
AcDbLine
 10
357.163895
 20
172.069273
 30
0.0
 11
357.663895
 21
172.069273
 31
0.0
  0
LINE
  5
107
330
1F
100
AcDbEntity
  8
1
  6
Continuous
 62
    30
370
    18
100
AcDbLine
 10
403.163895
 20
179.090966
 30
0.0
 11
403.163895
 21
175.340966
 31
0.0
  0
LINE
  5
108
330
1F
100
AcDbEntity
  8
1
  6
Continuous
 62
    30
370
    18
100
AcDbLine
 10
357.163895
 20
116.590966
 30
0.0
 11
357.163895
 21
120.340966
 31
0.0
  0
LINE
  5
109
330
1F
100
AcDbEntity
  8
1
  6
Continuous
 62
    30
370
    18
100
AcDbLine
 10
403.163895
 20
174.776788
 30
0.0
 11
403.163895
 21
171.026788
 31
0.0
  0
LINE
  5
10A
330
1F
100
AcDbEntity
  8
1
  6
Continuous
 62
    30
370
    18
100
AcDbLine
 10
357.163895
 20
120.905144
 30
0.0
 11
357.163895
 21
124.655144
 31
0.0
  0
LINE
  5
10B
330
1F
100
AcDbEntity
  8
1
  6
Continuous
 62
    30
370
    18
100
AcDbLine
 10
357.663895
 20
76.538792
 30
0.0
 11
357.663895
 21
125.341469
 31
0.0
  0
LINE
  5
10C
330
1F
100
AcDbEntity
  8
1
  6
Continuous
 62
    30
370
    18
100
AcDbLine
 10
357.663895
 20
170.340463
 30
0.0
 11
357.663895
 21
219.14314
 31
0.0
  0
LINE
  5
10D
330
1F
100
AcDbEntity
  8
1
  6
Continuous
 62
    30
370
    13
100
AcDbLine
 10
368.439757
 20
231.436618
 30
0.0
 11
368.439757
 21
170.337604
 31
0.0
  0
LINE
  5
10E
330
1F
100
AcDbEntity
  8
1
  6
Continuous
 62
    30
370
    13
100
AcDbLine
 10
368.439757
 20
125.344328
 30
0.0
 11
368.439757
 21
64.245314
 31
0.0
  0
LINE
  5
10F
330
1F
100
AcDbEntity
  8
1
  6
Continuous
 62
    30
370
    13
100
AcDbLine
 10
433.304631
 20
85.920663
 30
0.0
 11
425.163895
 21
95.406358
 31
0.0
  0
LINE
  5
110
330
1F
100
AcDbEntity
  8
1
  6
Continuous
 62
    30
370
    13
100
AcDbLine
 10
425.163895
 20
125.340784
 30
0.0
 11
425.163895
 21
95.406358
 31
0.0
  0
LINE
  5
111
330
1F
100
AcDbEntity
  8
1
  6
Continuous
 62
    30
370
    13
100
AcDbLine
 10
425.163895
 20
200.275574
 30
0.0
 11
425.163895
 21
170.341148
 31
0.0
  0
LINE
  5
112
330
1F
100
AcDbEntity
  8
1
  6
Continuous
 62
    30
370
    13
100
AcDbLine
 10
433.304631
 20
209.76127
 30
0.0
 11
425.163895
 21
200.275574
 31
0.0
  0
LINE
  5
113
330
1F
100
AcDbEntity
  8
1
  6
Continuous
 62
    30
370
    18
100
AcDbLine
 10
402.663895
 20
219.14314
 30
0.0
 11
402.663895
 21
170.340463
 31
0.0
  0
LINE
  5
114
330
1F
100
AcDbEntity
  8
1
  6
Continuous
 62
    30
370
    18
100
AcDbLine
 10
402.663895
 20
125.341469
 30
0.0
 11
402.663895
 21
76.538792
 31
0.0
  0
LINE
  5
115
330
1F
100
AcDbEntity
  8
1
  6
Continuous
 62
    30
370
    13
100
AcDbLine
 10
391.888033
 20
64.245314
 30
0.0
 11
391.888033
 21
125.344328
 31
0.0
  0
LINE
  5
116
330
1F
100
AcDbEntity
  8
1
  6
Continuous
 62
    30
370
    13
100
AcDbLine
 10
391.888033
 20
170.337604
 30
0.0
 11
391.888033
 21
231.436618
 31
0.0
  0
ARC
  5
117
330
1F
100
AcDbEntity
  8
2
  6
Continuous
 62
    30
370
    18
100
AcDbCircle
 10
380.163895
 20
625.782137
 30
0.0
 40
90.00000000000003
100
AcDbArc
 50
180.0
 51
252.185625
  0
ARC
  5
118
330
1F
100
AcDbEntity
  8
2
  6
Continuous
 62
    30
370
    18
100
AcDbCircle
 10
380.163895
 20
625.782137
 30
0.0
 40
90.00000000000003
100
AcDbArc
 50
287.817187
 51
0.0
  0
ARC
  5
119
330
1F
100
AcDbEntity
  8
2
  6
Continuous
 62
    30
370
    18
100
AcDbCircle
 10
380.163895
 20
715.782137
 30
0.0
 40
90.00000000000003
100
AcDbArc
 50
0.0
 51
180.0
  0
ARC
  5
11A
330
1F
100
AcDbEntity
  8
2
  6
Continuous
 62
    30
370
    18
100
AcDbCircle
 10
380.163895
 20
715.782137
 30
0.0
 40
45.00000000000004
100
AcDbArc
 50
0.0
 51
180.0
  0
ARC
  5
11B
330
1F
100
AcDbEntity
  8
1
  6
Continuous
 62
    30
370
    18
100
AcDbCircle
 10
311.066948
 20
519.282137
 30
0.0
 40
12.5
100
AcDbArc
 50
90.0
 51
189.41056
  0
ARC
  5
11C
330
1F
100
AcDbEntity
  8
1
  6
Continuous
 62
    30
370
    18
100
AcDbCircle
 10
449.260842
 20
519.282137
 30
0.0
 40
12.5
100
AcDbArc
 50
350.58944
 51
90.0
  0
ARC
  5
11D
330
1F
100
AcDbEntity
  8
1
  6
Continuous
 62
    30
370
    18
100
AcDbCircle
 10
370.163895
 20
617.58917
 30
0.0
 40
12.5
100
AcDbArc
 50
97.928142
 51
180.0
  0
ARC
  5
11E
330
1F
100
AcDbEntity
  8
1
  6
Continuous
 62
    30
370
    18
100
AcDbCircle
 10
390.163895
 20
617.58917
 30
0.0
 40
12.5
100
AcDbArc
 50
0.0
 51
82.071858
  0
ARC
  5
11F
330
1F
100
AcDbEntity
  8
1
  6
Continuous
 62
    30
370
    18
100
AcDbCircle
 10
380.163895
 20
545.782137
 30
0.0
 40
85.00000000000003
100
AcDbArc
 50
82.071858
 51
97.928142
  0
ARC
  5
120
330
1F
100
AcDbEntity
  8
1
  6
Continuous
 62
   252
370
    18
100
AcDbCircle
 10
329.163895
 20
416.782137
 30
0.0
 40
1.0
100
AcDbArc
 50
0.0
 51
90.0
  0
ARC
  5
121
330
1F
100
AcDbEntity
  8
1
  6
Continuous
 62
   252
370
    18
100
AcDbCircle
 10
431.163895
 20
416.782137
 30
0.0
 40
1.0
100
AcDbArc
 50
90.0
 51
180.0
  0
ARC
  5
122
330
1F
100
AcDbEntity
  8
1
  6
Continuous
 62
   252
370
    18
100
AcDbCircle
 10
296.163895
 20
418.782137
 30
0.0
 40
1.0
100
AcDbArc
 50
180.0
 51
270.0
  0
ARC
  5
123
330
1F
100
AcDbEntity
  8
1
  6
Continuous
 62
   252
370
    18
100
AcDbCircle
 10
464.163895
 20
418.782137
 30
0.0
 40
1.0
100
AcDbArc
 50
270.0
 51
0.0
  0
ARC
  5
124
330
1F
100
AcDbEntity
  8
2
  6
Continuous
 62
    30
370
    18
100
AcDbCircle
 10
380.163895
 20
625.782137
 30
0.0
 40
45.00000000000002
100
AcDbArc
 50
299.998126
 51
0.0
  0
ARC
  5
125
330
1F
100
AcDbEntity
  8
2
  6
Continuous
 62
    30
370
    18
100
AcDbCircle
 10
380.163895
 20
625.782137
 30
0.0
 40
45.00000000000002
100
AcDbArc
 50
180.0
 51
240.001874
  0
ARC
  5
126
330
1F
100
AcDbEntity
  8
2
  6
Continuous
 62
    30
370
    18
100
AcDbCircle
 10
753.842839
 20
783.282137
 30
0.0
 40
22.5
100
AcDbArc
 50
0.0
 51
180.0
  0
ARC
  5
127
330
1F
100
AcDbEntity
  8
2
  6
Continuous
 62
    30
370
    18
100
AcDbCircle
 10
753.842839
 20
558.282137
 30
0.0
 40
22.5
100
AcDbArc
 50
180.0
 51
0.0
  0
ARC
  5
128
330
1F
100
AcDbEntity
  8
1
  6
Continuous
 62
    30
370
    18
100
AcDbCircle
 10
753.842839
 20
545.782137
 30
0.0
 40
85.00000000000003
100
AcDbArc
 50
0.0
 51
74.651437
  0
ARC
  5
129
330
1F
100
AcDbEntity
  8
1
  6
Continuous
 62
    30
370
    18
100
AcDbCircle
 10
753.842839
 20
545.782137
 30
0.0
 40
85.00000000000003
100
AcDbArc
 50
105.347786
 51
189.41056
  0
ARC
  5
12A
330
1F
100
AcDbEntity
  8
1
  6
Continuous
 62
    30
370
    18
100
AcDbCircle
 10
753.842839
 20
545.782137
 30
0.0
 40
85.00000000000003
100
AcDbArc
 50
350.58944
 51
0.0
  0
ARC
  5
12B
330
1F
100
AcDbEntity
  8
1
  6
Continuous
 62
   252
370
    18
100
AcDbCircle
 10
702.842839
 20
416.782137
 30
0.0
 40
1.0
100
AcDbArc
 50
0.0
 51
90.0
  0
ARC
  5
12C
330
1F
100
AcDbEntity
  8
1
  6
Continuous
 62
   252
370
    18
100
AcDbCircle
 10
804.842839
 20
416.782137
 30
0.0
 40
1.0
100
AcDbArc
 50
90.0
 51
180.0
  0
ARC
  5
12D
330
1F
100
AcDbEntity
  8
1
  6
Continuous
 62
   252
370
    18
100
AcDbCircle
 10
669.842839
 20
418.782137
 30
0.0
 40
1.0
100
AcDbArc
 50
180.0
 51
270.0
  0
ARC
  5
12E
330
1F
100
AcDbEntity
  8
1
  6
Continuous
 62
   252
370
    18
100
AcDbCircle
 10
837.842839
 20
418.782137
 30
0.0
 40
1.0
100
AcDbArc
 50
270.0
 51
0.0
  0
ARC
  5
12F
330
1F
100
AcDbEntity
  8
1
  6
Continuous
 62
    30
370
    18
100
AcDbCircle
 10
753.842839
 20
556.282137
 30
0.0
 40
24.5
100
AcDbArc
 50
356.901421
 51
23.312324
  0
ARC
  5
130
330
1F
100
AcDbEntity
  8
1
  6
Continuous
 62
    30
370
    18
100
AcDbCircle
 10
753.842839
 20
556.282137
 30
0.0
 40
24.5
100
AcDbArc
 50
156.687676
 51
183.098579
  0
ARC
  5
131
330
1F
100
AcDbEntity
  8
1
  6
Continuous
 62
    30
370
    13
100
AcDbCircle
 10
753.842839
 20
556.282137
 30
0.0
 40
37.00000000000001
100
AcDbArc
 50
127.451813
 51
183.098579
  0
ARC
  5
132
330
1F
100
AcDbEntity
  8
1
  6
Continuous
 62
    30
370
    13
100
AcDbCircle
 10
753.842839
 20
556.282137
 30
0.0
 40
37.00000000000001
100
AcDbArc
 50
356.901421
 51
52.548187
  0
ARC
  5
133
330
1F
100
AcDbEntity
  8
1
  6
Continuous
 62
    30
370
    13
100
AcDbCircle
 10
753.842839
 20
545.782137
 30
0.0
 40
84.18755602685044
100
AcDbArc
 50
105.498935
 51
173.201798
  0
ARC
  5
134
330
1F
100
AcDbEntity
  8
1
  6
Continuous
 62
    30
370
    13
100
AcDbCircle
 10
753.842839
 20
545.782137
 30
0.0
 40
84.18755602685044
100
AcDbArc
 50
6.798202
 51
74.501065
  0
ARC
  5
135
330
1F
100
AcDbEntity
  8
1
  6
Continuous
 62
    30
370
    13
100
AcDbCircle
 10
753.842839
 20
545.782137
 30
0.0
 40
71.8070330817254
100
AcDbArc
 50
6.798202
 51
71.739805
  0
ARC
  5
136
330
1F
100
AcDbEntity
  8
1
  6
Continuous
 62
    30
370
    13
100
AcDbCircle
 10
753.842839
 20
545.782137
 30
0.0
 40
71.8070330817254
100
AcDbArc
 50
108.260195
 51
173.201798
  0
CIRCLE
  5
137
330
1F
100
AcDbEntity
  8
1
  6
Continuous
 62
    30
370
    18
100
AcDbCircle
 10
778.903661
 20
609.142379
 30
0.0
 40
1.875
  0
CIRCLE
  5
138
330
1F
100
AcDbEntity
  8
1
  6
Continuous
 62
    30
370
    18
100
AcDbCircle
 10
783.217839
 20
606.872249
 30
0.0
 40
1.875
  0
ARC
  5
139
330
1F
100
AcDbEntity
  8
1
  6
Continuous
 62
    30
370
    18
100
AcDbCircle
 10
380.163895
 20
147.840966
 30
0.0
 40
81.59694723466396
100
AcDbArc
 50
310.636583
 51
346.429688
  0
ARC
  5
13A
330
1F
100
AcDbEntity
  8
1
  6
Continuous
 62
    30
370
    18
100
AcDbCircle
 10
380.163895
 20
147.840966
 30
0.0
 40
81.59694723466396
100
AcDbArc
 50
13.570312
 51
49.363417
  0
ARC
  5
13B
330
1F
100
AcDbEntity
  8
1
  6
Continuous
 62
    30
370
    18
100
AcDbCircle
 10
380.163895
 20
147.840966
 30
0.0
 40
81.59694723466396
100
AcDbArc
 50
130.636583
 51
166.429688
  0
ARC
  5
13C
330
1F
100
AcDbEntity
  8
1
  6
Continuous
 62
    30
370
    18
100
AcDbCircle
 10
380.163895
 20
147.840966
 30
0.0
 40
81.59694723466396
100
AcDbArc
 50
193.570312
 51
229.363417
  0
ARC
  5
13D
330
1F
100
AcDbEntity
  8
1
  6
Continuous
 62
    30
370
    18
100
AcDbCircle
 10
380.163895
 20
147.840966
 30
0.0
 40
85.00000000000003
100
AcDbArc
 50
270.0
 51
278.783588
  0
ARC
  5
13E
330
1F
100
AcDbEntity
  8
1
  6
Continuous
 62
    30
370
    18
100
AcDbCircle
 10
380.163895
 20
147.840966
 30
0.0
 40
85.00000000000003
100
AcDbArc
 50
81.229854
 51
98.783695
  0
ARC
  5
13F
330
1F
100
AcDbEntity
  8
1
  6
Continuous
 62
    30
370
    18
100
AcDbCircle
 10
380.163895
 20
147.840966
 30
0.0
 40
85.00000000000003
100
AcDbArc
 50
261.229844
 51
270.0
  0
ARC
  5
140
330
1F
100
AcDbEntity
  8
2
  6
Continuous
 62
    30
370
    18
100
AcDbCircle
 10
447.663895
 20
147.840966
 30
0.0
 40
22.5
100
AcDbArc
 50
270.000001
 51
0.0
  0
ARC
  5
141
330
1F
100
AcDbEntity
  8
2
  6
Continuous
 62
    30
370
    18
100
AcDbCircle
 10
447.663895
 20
147.840966
 30
0.0
 40
22.5
100
AcDbArc
 50
0.0
 51
89.999999
  0
ARC
  5
142
330
1F
100
AcDbEntity
  8
2
  6
Continuous
 62
    30
370
    18
100
AcDbCircle
 10
312.663895
 20
147.840966
 30
0.0
 40
22.5
100
AcDbArc
 50
180.0
 51
269.999999
  0
ARC
  5
143
330
1F
100
AcDbEntity
  8
2
  6
Continuous
 62
    30
370
    18
100
AcDbCircle
 10
312.663895
 20
147.840966
 30
0.0
 40
22.5
100
AcDbArc
 50
90.000001
 51
180.0
  0
ARC
  5
144
330
1F
100
AcDbEntity
  8
1
  6
Continuous
 62
    30
370
    13
100
AcDbCircle
 10
380.163895
 20
147.840966
 30
0.0
 40
69.09694723466396
100
AcDbArc
 50
130.636583
 51
160.996627
  0
ARC
  5
145
330
1F
100
AcDbEntity
  8
1
  6
Continuous
 62
    30
370
    13
100
AcDbCircle
 10
380.163895
 20
147.840966
 30
0.0
 40
69.09694723466396
100
AcDbArc
 50
199.003373
 51
229.363417
  0
ARC
  5
146
330
1F
100
AcDbEntity
  8
1
  6
Continuous
 62
    30
370
    13
100
AcDbCircle
 10
380.163895
 20
147.840966
 30
0.0
 40
69.09694723466396
100
AcDbArc
 50
310.636583
 51
340.996627
  0
ARC
  5
147
330
1F
100
AcDbEntity
  8
1
  6
Continuous
 62
    30
370
    13
100
AcDbCircle
 10
380.163895
 20
147.840966
 30
0.0
 40
69.09694723466396
100
AcDbArc
 50
19.003373
 51
49.363417
  0
ARC
  5
148
330
1F
100
AcDbEntity
  8
1
  6
Continuous
 62
   252
370
    18
100
AcDbCircle
 10
380.163895
 20
147.840966
 30
0.0
 40
85.0
100
AcDbArc
 50
278.78625
 51
349.284375
  0
ARC
  5
149
330
1F
100
AcDbEntity
  8
1
  6
Continuous
 62
   252
370
    18
100
AcDbCircle
 10
380.163895
 20
147.840966
 30
0.0
 40
85.0
100
AcDbArc
 50
190.71
 51
261.225
  0
ARC
  5
14A
330
1F
100
AcDbEntity
  8
1
  6
Continuous
 62
   252
370
    18
100
AcDbCircle
 10
380.163895
 20
147.840966
 30
0.0
 40
85.0
100
AcDbArc
 50
98.791875
 51
169.29
  0
ARC
  5
14B
330
1F
100
AcDbEntity
  8
1
  6
Continuous
 62
   252
370
    18
100
AcDbCircle
 10
380.163895
 20
147.840966
 30
0.0
 40
85.0
100
AcDbArc
 50
10.715625
 51
81.230625
  0
ELLIPSE
  5
14C
330
1F
100
AcDbEntity
  8
1
  6
Continuous
 62
    30
370
    13
100
AcDbEllipse
 10
363.636721
 20
533.927822
 30
0.0
 11
-10.1688666475308
 21
7.269398262905644
 31
0.0
210
0.0
220
0.0
230
1.0
 40
0.266677
 41
0.0
 42
1.480312760067729
  0
ELLIPSE
  5
14D
330
1F
100
AcDbEntity
  8
1
  6
Continuous
 62
    30
370
    13
100
AcDbEllipse
 10
370.163895
 20
554.282137
 30
0.0
 11
-12.5
 21
0.0
 31
0.0
210
0.0
220
0.0
230
1.0
 40
0.118373
 41
4.850761157769796
 42
6.283185307179586
  0
ELLIPSE
  5
14E
330
1F
100
AcDbEntity
  8
1
  6
Continuous
 62
    30
370
    13
100
AcDbEllipse
 10
396.691068
 20
533.927822
 30
0.0
 11
-10.16886664753081
 21
-7.269398262905639
 31
0.0
210
0.0
220
0.0
230
1.0
 40
0.266677
 41
1.66127989352206
 42
3.141592653589793
  0
ELLIPSE
  5
14F
330
1F
100
AcDbEntity
  8
1
  6
Continuous
 62
    30
370
    13
100
AcDbEllipse
 10
390.163895
 20
554.282137
 30
0.0
 11
12.5
 21
0.0
 31
0.0
210
0.0
220
0.0
230
1.0
 40
0.118373
 41
0.0
 42
1.43242414940979
  0
ELLIPSE
  5
150
330
1F
100
AcDbEntity
  8
1
  6
Continuous
 62
    30
370
    13
100
AcDbEllipse
 10
335.163895
 20
519.282137
 30
0.0
 11
0.0
 21
-12.5
 31
0.0
210
0.0
220
0.0
230
1.0
 40
0.651259
 41
3.141592653589793
 42
4.8766342404772
  0
ELLIPSE
  5
151
330
1F
100
AcDbEntity
  8
1
  6
Continuous
 62
    30
370
    13
100
AcDbEllipse
 10
425.163895
 20
519.282137
 30
0.0
 11
0.0
 21
-12.5
 31
0.0
210
0.0
220
0.0
230
1.0
 40
0.651259
 41
1.406551066702386
 42
3.141592653589793
  0
ELLIPSE
  5
152
330
1F
100
AcDbEntity
  8
1
  6
Continuous
 62
    30
370
    13
100
AcDbEllipse
 10
684.254206
 20
533.927822
 30
0.0
 11
-11.83419645369478
 21
-4.025145251460868
 31
0.0
210
0.0
220
0.0
230
1.0
 40
0.560491
 41
4.524010348628067
 42
6.004323108695801
  0
ELLIPSE
  5
153
330
1F
100
AcDbEntity
  8
1
  6
Continuous
 62
    30
370
    13
100
AcDbEllipse
 10
823.431471
 20
533.927822
 30
0.0
 11
-11.83419645369477
 21
4.02514525146091
 31
0.0
210
0.0
220
0.0
230
1.0
 40
0.560491
 41
3.420454852073587
 42
4.900767612141314
  0
ELLIPSE
  5
154
330
1F
100
AcDbEntity
  8
1
  6
Continuous
 62
    30
370
    13
100
AcDbEllipse
 10
806.277447
 20
519.282137
 30
0.0
 11
0.0
 21
-12.5
 31
0.0
210
0.0
220
0.0
230
1.0
 40
0.758856
 41
1.406551066702386
 42
3.141592653589793
  0
ELLIPSE
  5
155
330
1F
100
AcDbEntity
  8
1
  6
Continuous
 62
    30
370
    13
100
AcDbEllipse
 10
701.408231
 20
519.282137
 30
0.0
 11
0.0
 21
-12.5
 31
0.0
210
0.0
220
0.0
230
1.0
 40
0.758856
 41
3.141592653589793
 42
4.8766342404772
  0
ELLIPSE
  5
156
330
1F
100
AcDbEntity
  8
1
  6
Continuous
 62
    30
370
    13
100
AcDbEllipse
 10
363.636721
 20
217.429598
 30
0.0
 11
-5.370500396899353
 21
11.28750306697207
 31
0.0
210
0.0
220
0.0
230
1.0
 40
0.784049
 41
0.0005559698067277
 42
1.21374166655001
  0
ELLIPSE
  5
157
330
1F
100
AcDbEntity
  8
1
  6
Continuous
 62
    30
370
    13
100
AcDbEllipse
 10
396.691068
 20
78.252334
 30
0.0
 11
5.370500396899383
 21
-11.28750306697206
 31
0.0
210
0.0
220
0.0
230
1.0
 40
0.784049
 41
0.000555969806725
 42
1.213741666550007
  0
ELLIPSE
  5
158
330
1F
100
AcDbEntity
  8
1
  6
Continuous
 62
    30
370
    13
100
AcDbEllipse
 10
396.691068
 20
217.429598
 30
0.0
 11
-5.370500396899377
 21
-11.28750306697206
 31
0.0
210
0.0
220
0.0
230
1.0
 40
0.784049
 41
1.927850987039786
 42
3.141221672249491
  0
ELLIPSE
  5
159
330
1F
100
AcDbEntity
  8
1
  6
Continuous
 62
    30
370
    13
100
AcDbEllipse
 10
363.636721
 20
78.252334
 30
0.0
 11
5.370500396899403
 21
11.28750306697205
 31
0.0
210
0.0
220
0.0
230
1.0
 40
0.784049
 41
1.927850987039786
 42
3.141221672249491
  0
ELLIPSE
  5
15A
330
1F
100
AcDbEntity
  8
1
  6
Continuous
 62
    30
370
    18
100
AcDbEllipse
 10
370.163895
 20
76.538792
 30
0.0
 11
-12.5
 21
0.0
 31
0.0
210
0.0
220
0.0
230
1.0
 40
0.992969
 41
0.0
 42
1.43242414940979
  0
ELLIPSE
  5
15B
330
1F
100
AcDbEntity
  8
1
  6
Continuous
 62
    30
370
    13
100
AcDbEllipse
 10
370.163895
 20
219.14314
 30
0.0
 11
-12.5
 21
0.0
 31
0.0
210
0.0
220
0.0
230
1.0
 40
0.992969
 41
4.850761157769796
 42
6.283185307179586
  0
ELLIPSE
  5
15C
330
1F
100
AcDbEntity
  8
1
  6
Continuous
 62
    30
370
    18
100
AcDbEllipse
 10
390.163895
 20
219.14314
 30
0.0
 11
12.5
 21
0.0
 31
0.0
210
0.0
220
0.0
230
1.0
 40
0.992969
 41
0.0
 42
1.43242414940979
  0
ELLIPSE
  5
15D
330
1F
100
AcDbEntity
  8
1
  6
Continuous
 62
    30
370
    13
100
AcDbEllipse
 10
390.163895
 20
76.538792
 30
0.0
 11
12.5
 21
0.0
 31
0.0
210
0.0
220
0.0
230
1.0
 40
0.992969
 41
4.850761157769796
 42
6.283185307179586
  0
SPLINE
  5
15E
330
1F
100
AcDbEntity
  8
1
  6
Continuous
 62
    30
370
    18
100
AcDbSpline
210
0.0
220
0.0
230
1.0
 70
     8
 71
     3
 72
    35
 73
    31
 74
     0
 42
0.000000001
 43
0.0000000001
 40
0.0
 40
0.0
 40
0.0
 40
0.0
 40
0.1250000000000082
 40
0.1250000000000082
 40
0.2500000000000165
 40
0.2500000000000165
 40
0.3750000000000248
 40
0.3750000000000248
 40
0.4375000000000315
 40
0.4375000000000315
 40
0.4687500000000321
 40
0.4687500000000321
 40
0.4843750000000349
 40
0.4843750000000349
 40
0.5000000000000379
 40
0.6250000000000343
 40
0.7500000000000308
 40
0.7500000000000308
 40
0.812500000000029
 40
0.812500000000029
 40
0.843750000000028
 40
0.843750000000028
 40
0.8593750000000274
 40
0.8593750000000274
 40
0.875000000000027
 40
0.9062500000000202
 40
0.9062500000000202
 40
0.9375000000000135
 40
0.9375000000000135
 40
1.0
 40
1.0
 40
1.0
 40
1.0
 10
353.4678548012963
 20
541.1972202233696
 30
0.0
 10
353.7881641374686
 20
541.6452879736423
 30
0.0
 10
354.0935594402367
 20
542.1072218326574
 30
0.0
 10
354.6732568913636
 20
543.0595903310252
 30
0.0
 10
354.9475634477229
 20
543.5500212680438
 30
0.0
 10
355.4632857339886
 20
544.5606874584852
 30
0.0
 10
355.7047084366829
 20
545.0809165449183
 30
0.0
 10
356.040297720958
 20
545.8851034935094
 30
0.0
 10
356.1477305487539
 20
546.1571455949215
 30
0.0
 10
356.3019334099334
 20
546.5714278380935
 30
0.0
 10
356.3521761277605
 20
546.7105589135667
 30
0.0
 10
356.4257602640199
 20
546.92084688478
 30
0.0
 10
356.4499722260149
 20
546.991154587868
 30
0.0
 10
356.4976437503648
 20
547.1318452245742
 30
0.0
 10
356.7089350049854
 20
547.7657466672497
 30
0.0
 10
357.0534094374105
 20
548.9765325304843
 30
0.0
 10
357.2869984290668
 20
550.1383336385522
 30
0.0
 10
357.4278637736757
 20
551.0181070637017
 30
0.0
 10
357.4690911649819
 20
551.3127703283283
 30
0.0
 10
357.52223569929
 20
551.7568996024272
 30
0.0
 10
357.5385006746095
 20
551.905298536112
 30
0.0
 10
357.5607060902062
 20
552.1284350214064
 30
0.0
 10
357.5677454949985
 20
552.2029385344125
 30
0.0
 10
357.5810698888143
 20
552.3518900494107
 30
0.0
 10
357.5999290763475
 20
552.5752647180469
 30
0.0
 10
357.6154197132744
 20
552.7984818579721
 30
0.0
 10
357.6331003790273
 20
553.0959649138365
 30
0.0
 10
357.6404552383875
 20
553.244671307024
 30
0.0
 10
357.6580758516317
 20
553.6903333979076
 30
0.0
 10
357.6638948357408
 20
553.9866342607248
 30
0.0
 10
357.6638948357408
 20
554.2821370965999
 30
0.0
  0
SPLINE
  5
15F
330
1F
100
AcDbEntity
  8
1
  6
Continuous
 62
    30
370
    13
100
AcDbSpline
210
0.0
220
0.0
230
1.0
 70
     8
 71
     3
 72
    32
 73
    28
 74
     0
 42
0.000000001
 43
0.0000000001
 40
0.0
 40
0.0
 40
0.0
 40
0.0
 40
0.062499999999985
 40
0.062499999999985
 40
0.0781249999999829
 40
0.0781249999999829
 40
0.0937499999999808
 40
0.1249999999999799
 40
0.1249999999999799
 40
0.2499999999999798
 40
0.2499999999999798
 40
0.3749999999999797
 40
0.3749999999999797
 40
0.4999999999999796
 40
0.4999999999999796
 40
0.5312499999999802
 40
0.5312499999999802
 40
0.5468749999999815
 40
0.5468749999999815
 40
0.5624999999999826
 40
0.624999999999985
 40
0.624999999999985
 40
0.74999999999999
 40
0.74999999999999
 40
0.874999999999995
 40
0.874999999999995
 40
1.0
 40
1.0
 40
1.0
 40
1.0
 10
368.4397569047064
 20
555.7476543379792
 30
0.0
 10
368.4397569047064
 20
555.2109143727338
 30
0.0
 10
368.4292299825834
 20
554.6736987256518
 30
0.0
 10
368.4028120729748
 20
554.0015854483415
 30
0.0
 10
368.3968639541065
 20
553.8671177139033
 30
0.0
 10
368.383660402832
 20
553.5985352681205
 30
0.0
 10
368.3618887228961
 20
553.1960391863018
 30
0.0
 10
368.3342423701842
 20
552.7946711756367
 30
0.0
 10
368.229126166523
 20
551.4592667223543
 30
0.0
 10
368.1036163420105
 20
550.3988960435697
 30
0.0
 10
367.7711536073973
 20
548.2937930497965
 30
0.0
 10
367.5641987536254
 20
547.2490611087131
 30
0.0
 10
367.0687301909245
 20
545.1752578693576
 30
0.0
 10
366.7802191167788
 20
544.1461860641475
 30
0.0
 10
366.3675938896453
 20
542.8698288475847
 30
0.0
 10
366.2824656856082
 20
542.6150572696046
 30
0.0
 10
366.1508377939588
 20
542.2336556329503
 30
0.0
 10
366.1063262050339
 20
542.1067095498574
 30
0.0
 10
366.0162249225888
 20
541.853724536931
 30
0.0
 10
365.7881446348927
 20
541.2231492741847
 30
0.0
 10
365.5460425352086
 20
540.6019375059277
 30
0.0
 10
364.9387728403634
 20
539.1285702283884
 30
0.0
 10
364.4990004398313
 20
538.1696848123712
 30
0.0
 10
363.5522494227384
 20
536.2970573973303
 30
0.0
 10
363.045264459862
 20
535.3833194107534
 30
0.0
 10
361.9655009034325
 20
533.6002894140188
 30
0.0
 10
361.3927194737376
 20
532.7309988729169
 30
0.0
 10
360.7872087959109
 20
531.8839745231993
 30
0.0
  0
SPLINE
  5
160
330
1F
100
AcDbEntity
  8
1
  6
Continuous
 62
    30
370
    18
100
AcDbSpline
210
0.0
220
0.0
230
1.0
 70
     8
 71
     3
 72
    32
 73
    28
 74
     0
 42
0.000000001
 43
0.0000000001
 40
0.0
 40
0.0
 40
0.0
 40
0.0
 40
0.1250000000000151
 40
0.2500000000000303
 40
0.2500000000000303
 40
0.3750000000000454
 40
0.3750000000000454
 40
0.4062500000000451
 40
0.4062500000000451
 40
0.4375000000000447
 40
0.4375000000000447
 40
0.4687500000000444
 40
0.4687500000000444
 40
0.5000000000000441
 40
0.5000000000000441
 40
0.6250000000000332
 40
0.6250000000000332
 40
0.7500000000000223
 40
0.7500000000000223
 40
0.8750000000000115
 40
0.8750000000000115
 40
0.906250000000009
 40
0.906250000000009
 40
0.9218750000000084
 40
0.9218750000000084
 40
0.9375000000000079
 40
1.0
 40
1.0
 40
1.0
 40
1.0
 10
402.663894835741
 20
554.2821370965999
 30
0.0
 10
402.663894835741
 20
553.6911745645693
 30
0.0
 10
402.7103891693068
 20
552.512057695593
 30
0.0
 10
402.8493985136148
 20
551.3385912601473
 30
0.0
 10
403.0352909688893
 20
550.1680030315216
 30
0.0
 10
403.1516750621242
 20
549.5841478249378
 30
0.0
 10
403.3274234407592
 20
548.8561855969956
 30
0.0
 10
403.3641185946295
 20
548.7105818221945
 30
0.0
 10
403.4402923136769
 20
548.4206043788155
 30
0.0
 10
403.4797939770019
 20
548.276125851075
 30
0.0
 10
403.56161337993
 20
547.988184678821
 30
0.0
 10
403.6039723416332
 20
547.8445940198155
 30
0.0
 10
403.6911568911254
 20
547.559507850594
 30
0.0
 10
403.7360066513172
 20
547.4179171160823
 30
0.0
 10
403.9664102471933
 20
546.7146292584822
 30
0.0
 10
404.1703901322555
 20
546.1668984549952
 30
0.0
 10
404.6149269999901
 20
545.0993129759529
 30
0.0
 10
404.8554919683139
 20
544.5794644045526
 30
0.0
 10
405.3713106472828
 20
543.566415210627
 30
0.0
 10
405.646569252862
 20
543.0732181600499
 30
0.0
 10
406.0115403311304
 20
542.472943293386
 30
0.0
 10
406.0855808207897
 20
542.3537005764742
 30
0.0
 10
406.1982001731654
 20
542.1760501221523
 30
0.0
 10
406.2360156298589
 20
542.1170111487377
 30
0.0
 10
406.3120797825957
 20
541.9994676081776
 30
0.0
 10
406.5032864332633
 20
541.7069996410983
 30
0.0
 10
406.6996624171496
 20
541.4214188630992
 30
0.0
 10
406.8599348701856
 20
541.1972202233696
 30
0.0
  0
SPLINE
  5
161
330
1F
100
AcDbEntity
  8
1
  6
Continuous
 62
    30
370
    13
100
AcDbSpline
210
0.0
220
0.0
230
1.0
 70
     8
 71
     3
 72
    31
 73
    27
 74
     0
 42
0.000000001
 43
0.0000000001
 40
0.0
 40
0.0
 40
0.0
 40
0.0
 40
0.0624999999999986
 40
0.0624999999999986
 40
0.0937499999999973
 40
0.0937499999999973
 40
0.1249999999999961
 40
0.1249999999999961
 40
0.2499999999999901
 40
0.2499999999999901
 40
0.3749999999999841
 40
0.3749999999999841
 40
0.4999999999999781
 40
0.4999999999999781
 40
0.5312499999999782
 40
0.5312499999999782
 40
0.5468749999999782
 40
0.5468749999999782
 40
0.5624999999999782
 40
0.6249999999999813
 40
0.6249999999999813
 40
0.7499999999999876
 40
0.7499999999999876
 40
0.8749999999999938
 40
0.8749999999999938
 40
1.0
 40
1.0
 40
1.0
 40
1.0
 10
399.5405808755709
 20
531.8839745231992
 30
0.0
 10
399.2378475074303
 20
532.3074559640345
 30
0.0
 10
398.9424087077379
 20
532.7377601871891
 30
0.0
 10
398.5104025548192
 20
533.3935991265996
 30
0.0
 10
398.3681737364299
 20
533.6140830739918
 30
0.0
 10
398.0881725715603
 20
534.0574246402268
 30
0.0
 10
397.9503407755648
 20
534.2803665802088
 30
0.0
 10
397.2720150979569
 20
535.4014164355405
 30
0.0
 10
396.7639759481483
 20
536.3185165010453
 30
0.0
 10
395.8175878139431
 20
538.1932896108291
 30
0.0
 10
395.379235438539
 20
539.1509609519906
 30
0.0
 10
394.573864365479
 20
541.1076726015252
 30
0.0
 10
394.2068381812282
 20
542.1067086652666
 30
0.0
 10
393.7945134736702
 20
543.3823753603372
 30
0.0
 10
393.7143751117076
 20
543.6388545174906
 30
0.0
 10
393.5977043241154
 20
544.0256181504255
 30
0.0
 10
393.5593826882897
 20
544.1549539932874
 30
0.0
 10
393.4841055125581
 20
544.4136901730109
 30
0.0
 10
393.2992458824122
 20
545.060953654351
 30
0.0
 10
393.1309661641646
 20
545.7103216077637
 30
0.0
 10
392.7584510190636
 20
547.2727860707987
 30
0.0
 10
392.5518680537907
 20
548.319731738684
 30
0.0
 10
392.2208871581221
 20
550.424059718732
 30
0.0
 10
392.0964910877697
 20
551.4814422670521
 30
0.0
 10
391.9300652659422
 20
553.6066595827327
 30
0.0
 10
391.8880327667755
 20
554.6744940352403
 30
0.0
 10
391.8880327667755
 20
555.7476543379792
 30
0.0
  0
SPLINE
  5
162
330
1F
100
AcDbEntity
  8
1
  6
Continuous
 62
    30
370
    18
100
AcDbSpline
210
0.0
220
0.0
230
1.0
 70
    24
 71
     3
 72
     8
 73
     4
 74
     0
 42
0.000000001
 43
0.0000000001
 40
0.0
 40
0.0
 40
0.0
 40
0.0
 40
1.0
 40
1.0
 40
1.0
 40
1.0
 10
357.1638948357411
 20
591.6862318728394
 30
0.0
 10
357.1638948357411
 20
591.9072587784085
 30
0.0
 10
357.1638948357411
 20
592.1282856839778
 30
0.0
 10
357.1638948357411
 20
592.3493125895469
 30
0.0
  0
SPLINE
  5
163
330
1F
100
AcDbEntity
  8
1
  6
Continuous
 62
    30
370
    18
100
AcDbSpline
210
0.0
220
0.0
230
1.0
 70
    24
 71
     3
 72
     8
 73
     4
 74
     0
 42
0.000000001
 43
0.0000000001
 40
0.0
 40
0.0
 40
0.0
 40
0.0
 40
1.0
 40
1.0
 40
1.0
 40
1.0
 10
357.1638948357411
 20
592.3493125895469
 30
0.0
 10
357.1638948357411
 20
592.4726949228802
 30
0.0
 10
357.1638948357411
 20
592.5960772562136
 30
0.0
 10
357.1638948357411
 20
592.7194595895469
 30
0.0
  0
SPLINE
  5
164
330
1F
100
AcDbEntity
  8
1
  6
Continuous
 62
    30
370
    18
100
AcDbSpline
210
0.0
220
0.0
230
1.0
 70
    24
 71
     3
 72
     8
 73
     4
 74
     0
 42
0.000000001
 43
0.0000000001
 40
0.0
 40
0.0
 40
0.0
 40
0.0
 40
1.0
 40
1.0
 40
1.0
 40
1.0
 10
403.163894835741
 20
609.6654962621519
 30
0.0
 10
403.163894835741
 20
609.6652062003252
 30
0.0
 10
403.163894835741
 20
609.6649161384985
 30
0.0
 10
403.163894835741
 20
609.6646260766718
 30
0.0
  0
SPLINE
  5
165
330
1F
100
AcDbEntity
  8
1
  6
Continuous
 62
    30
370
    18
100
AcDbSpline
210
0.0
220
0.0
230
1.0
 70
    24
 71
     3
 72
     8
 73
     4
 74
     0
 42
0.000000001
 43
0.0000000001
 40
0.0
 40
0.0
 40
0.0
 40
0.0
 40
1.0
 40
1.0
 40
1.0
 40
1.0
 10
403.163894835741
 20
609.6623810352411
 30
0.0
 10
403.163894835741
 20
609.6620755116965
 30
0.0
 10
403.163894835741
 20
609.661769988152
 30
0.0
 10
403.163894835741
 20
609.6614644646073
 30
0.0
  0
SPLINE
  5
166
330
1F
100
AcDbEntity
  8
1
  6
Continuous
 62
    30
370
    18
100
AcDbSpline
210
0.0
220
0.0
230
1.0
 70
    24
 71
     3
 72
     8
 73
     4
 74
     0
 42
0.000000001
 43
0.0000000001
 40
0.0
 40
0.0
 40
0.0
 40
0.0
 40
1.0
 40
1.0
 40
1.0
 40
1.0
 10
403.163894835741
 20
609.6592082907398
 30
0.0
 10
403.163894835741
 20
609.6589002933205
 30
0.0
 10
403.163894835741
 20
609.658592295901
 30
0.0
 10
403.163894835741
 20
609.6582842984816
 30
0.0
  0
SPLINE
  5
167
330
1F
100
AcDbEntity
  8
1
  6
Continuous
 62
    30
370
    18
100
AcDbSpline
210
0.0
220
0.0
230
1.0
 70
    24
 71
     3
 72
     8
 73
     4
 74
     0
 42
0.000000001
 43
0.0000000001
 40
0.0
 40
0.0
 40
0.0
 40
0.0
 40
1.0
 40
1.0
 40
1.0
 40
1.0
 10
403.163894835741
 20
609.6582842984816
 30
0.0
 10
403.163894835741
 20
609.2947956318148
 30
0.0
 10
403.163894835741
 20
608.9313069651482
 30
0.0
 10
403.163894835741
 20
608.5678182984815
 30
0.0
  0
SPLINE
  5
168
330
1F
100
AcDbEntity
  8
1
  6
Continuous
 62
    30
370
    18
100
AcDbSpline
210
0.0
220
0.0
230
1.0
 70
    24
 71
     3
 72
    12
 73
     8
 74
     0
 42
0.000000001
 43
0.0000000001
 40
0.0
 40
0.0
 40
0.0
 40
0.0
 40
0.1663102293231375
 40
0.1663102293231375
 40
0.8046491103342277
 40
0.8046491103342277
 40
1.0
 40
1.0
 40
1.0
 40
1.0
 10
403.163894835741
 20
608.5389519342292
 30
0.0
 10
403.163894835741
 20
608.5388869145613
 30
0.0
 10
403.163894835741
 20
608.4970587292008
 30
0.0
 10
403.163894835741
 20
608.0954477226564
 30
0.0
 10
403.163894835741
 20
607.4156842671705
 30
0.0
 10
403.163894835741
 20
606.0612570255996
 30
0.0
 10
403.163894835741
 20
605.7273501051138
 30
0.0
 10
403.163894835741
 20
605.3769959342291
 30
0.0
  0
SPLINE
  5
169
330
1F
100
AcDbEntity
  8
1
  6
Continuous
 62
    30
370
    18
100
AcDbSpline
210
0.0
220
0.0
230
1.0
 70
    24
 71
     3
 72
     8
 73
     4
 74
     0
 42
0.000000001
 43
0.0000000001
 40
0.0
 40
0.0
 40
0.0
 40
0.0
 40
1.0
 40
1.0
 40
1.0
 40
1.0
 10
357.163894835741
 20
592.7501720468535
 30
0.0
 10
357.163894835741
 20
592.7876941203674
 30
0.0
 10
357.163894835741
 20
593.0367360230771
 30
0.0
 10
357.163894835741
 20
593.5000538699867
 30
0.0
  0
SPLINE
  5
16A
330
1F
100
AcDbEntity
  8
1
  6
Continuous
 62
    30
370
    18
100
AcDbSpline
210
0.0
220
0.0
230
1.0
 70
    24
 71
     3
 72
     8
 73
     4
 74
     0
 42
0.000000001
 43
0.0000000001
 40
0.0
 40
0.0
 40
0.0
 40
0.0
 40
1.0
 40
1.0
 40
1.0
 40
1.0
 10
403.163894835741
 20
605.3428946172946
 30
0.0
 10
403.163894835741
 20
605.3430255902093
 30
0.0
 10
403.163894835741
 20
605.2113284154948
 30
0.0
 10
403.163894835741
 20
604.9472178124809
 30
0.0
  0
SPLINE
  5
16B
330
1F
100
AcDbEntity
  8
1
  6
Continuous
 62
    30
370
    18
100
AcDbSpline
210
0.0
220
0.0
230
1.0
 70
    24
 71
     3
 72
     8
 73
     4
 74
     0
 42
0.000000001
 43
0.0000000001
 40
0.0
 40
0.0
 40
0.0
 40
0.0
 40
1.0
 40
1.0
 40
1.0
 40
1.0
 10
403.163894835741
 20
604.9472178124809
 30
0.0
 10
403.163894835741
 20
604.6409429013771
 30
0.0
 10
403.163894835741
 20
604.2236523098429
 30
0.0
 10
403.163894835741
 20
603.6959968124809
 30
0.0
  0
SPLINE
  5
16C
330
1F
100
AcDbEntity
  8
1
  6
Continuous
 62
    30
370
    18
100
AcDbSpline
210
0.0
220
0.0
230
1.0
 70
    24
 71
     3
 72
    12
 73
     8
 74
     0
 42
0.000000001
 43
0.0000000001
 40
0.0
 40
0.0
 40
0.0
 40
0.0
 40
0.3543161661628064
 40
0.3543161661628064
 40
0.9754956953482101
 40
0.9754956953482101
 40
1.0
 40
1.0
 40
1.0
 40
1.0
 10
357.1638948357409
 20
603.6717415269113
 30
0.0
 10
357.1638948357409
 20
604.2347715305704
 30
0.0
 10
357.163894835741
 20
604.6667965339583
 30
0.0
 10
357.163894835741
 20
605.4978075599802
 30
0.0
 10
357.163894835741
 20
605.5085723856257
 30
0.0
 10
357.163894835741
 20
604.9853458581914
 30
0.0
 10
357.163894835741
 20
604.9649396296317
 30
0.0
 10
357.163894835741
 20
604.943984370413
 30
0.0
  0
SPLINE
  5
16D
330
1F
100
AcDbEntity
  8
1
  6
Continuous
 62
    30
370
    18
100
AcDbSpline
210
0.0
220
0.0
230
1.0
 70
    24
 71
     3
 72
    10
 73
     6
 74
     0
 42
0.000000001
 43
0.0000000001
 40
0.0
 40
0.0
 40
0.0
 40
0.0
 40
0.3294987674609677
 40
0.3294987674609677
 40
1.0
 40
1.0
 40
1.0
 40
1.0
 10
357.163894835741
 20
593.5000538699867
 30
0.0
 10
357.163894835741
 20
593.9662684969319
 30
0.0
 10
357.163894835741
 20
594.780180207566
 30
0.0
 10
357.163894835741
 20
598.3055615110356
 30
0.0
 10
357.163894835741
 20
600.669334020182
 30
0.0
 10
357.163894835741
 20
603.0331065293284
 30
0.0
  0
SPLINE
  5
16E
330
1F
100
AcDbEntity
  8
1
  6
Continuous
 62
    30
370
    18
100
AcDbSpline
210
0.0
220
0.0
230
1.0
 70
    24
 71
     3
 72
     8
 73
     4
 74
     0
 42
0.000000001
 43
0.0000000001
 40
0.0
 40
0.0
 40
0.0
 40
0.0
 40
1.0
 40
1.0
 40
1.0
 40
1.0
 10
357.163894835741
 20
603.0331065293284
 30
0.0
 10
357.163894835741
 20
603.2365996871289
 30
0.0
 10
357.163894835741
 20
603.4400928449294
 30
0.0
 10
357.163894835741
 20
603.6435860027299
 30
0.0
  0
SPLINE
  5
16F
330
1F
100
AcDbEntity
  8
1
  6
Continuous
 62
    30
370
    18
100
AcDbSpline
210
0.0
220
0.0
230
1.0
 70
    24
 71
     3
 72
     8
 73
     4
 74
     0
 42
0.000000001
 43
0.0000000001
 40
0.0
 40
0.0
 40
0.0
 40
0.0
 40
1.0
 40
1.0
 40
1.0
 40
1.0
 10
403.163894835741
 20
603.026861657071
 30
0.0
 10
403.163894835741
 20
599.2466517289938
 30
0.0
 10
403.163894835741
 20
595.4664418009165
 30
0.0
 10
403.163894835741
 20
591.6862318728394
 30
0.0
  0
SPLINE
  5
170
330
1F
100
AcDbEntity
  8
1
  6
Continuous
 62
    30
370
    18
100
AcDbSpline
210
0.0
220
0.0
230
1.0
 70
    24
 71
     3
 72
     8
 73
     4
 74
     0
 42
0.000000001
 43
0.0000000001
 40
0.0
 40
0.0
 40
0.0
 40
0.0
 40
1.0
 40
1.0
 40
1.0
 40
1.0
 10
403.163894835741
 20
603.6305413929069
 30
0.0
 10
403.163894835741
 20
603.4293148142949
 30
0.0
 10
403.163894835741
 20
603.228088235683
 30
0.0
 10
403.163894835741
 20
603.026861657071
 30
0.0
  0
SPLINE
  5
171
330
1F
100
AcDbEntity
  8
1
  6
Continuous
 62
    30
370
    18
100
AcDbSpline
210
0.0
220
0.0
230
1.0
 70
     8
 71
     3
 72
    45
 73
    41
 74
     0
 42
0.000000001
 43
0.0000000001
 40
0.0
 40
0.0
 40
0.0
 40
0.0
 40
0.1250000000000108
 40
0.1250000000000108
 40
0.1875000000000161
 40
0.1875000000000161
 40
0.2500000000000215
 40
0.2500000000000215
 40
0.3125000000000268
 40
0.3125000000000268
 40
0.3750000000000321
 40
0.3750000000000321
 40
0.4062500000000346
 40
0.4062500000000346
 40
0.4140625000000349
 40
0.4140625000000349
 40
0.4218750000000351
 40
0.4375000000000343
 40
0.5000000000000322
 40
0.5000000000000322
 40
0.5625000000000303
 40
0.5625000000000303
 40
0.6250000000000282
 40
0.6250000000000282
 40
0.6875000000000262
 40
0.6875000000000262
 40
0.7500000000000241
 40
0.7500000000000241
 40
0.7812500000000235
 40
0.7812500000000235
 40
0.789062500000023
 40
0.789062500000023
 40
0.7968750000000224
 40
0.7968750000000224
 40
0.8125000000000211
 40
0.8750000000000141
 40
0.8750000000000141
 40
0.937500000000007
 40
0.937500000000007
 40
1.0
 40
1.0
 40
1.0
 40
1.0
 10
335.1638948357409
 20
531.7821370965999
 30
0.0
 10
335.8607270100405
 20
531.7821370965999
 30
0.0
 10
336.5767131634504
 20
531.8144082069267
 30
0.0
 10
337.6789148754302
 20
531.9200956318386
 30
0.0
 10
338.0510164036502
 20
531.9648901947825
 30
0.0
 10
338.8044869852823
 20
532.0753572979604
 30
0.0
 10
339.1858566106703
 20
532.1410283947708
 30
0.0
 10
339.9576785505858
 20
532.2952203332042
 30
0.0
 10
340.3481316270806
 20
532.3837393689652
 30
0.0
 10
341.1378645332525
 20
532.5858742801706
 30
0.0
 10
341.5371453897753
 20
532.6994878578316
 30
0.0
 10
342.142421579971
 20
532.8906684191782
 30
0.0
 10
342.3452386025499
 20
532.9578581477887
 30
0.0
 10
342.6000474783101
 20
533.0463996579589
 30
0.0
 10
342.6510878076055
 20
533.0643409235092
 30
0.0
 10
342.7531430342353
 20
533.1006299542266
 30
0.0
 10
342.9062354211701
 20
533.1556894894136
 30
0.0
 10
343.4676404813483
 20
533.3645035418826
 30
0.0
 10
343.9779896774136
 20
533.5755815334908
 30
0.0
 10
344.7932529253045
 20
533.9419017501473
 30
0.0
 10
345.2002377516565
 20
534.1393588277743
 30
0.0
 10
346.0114883504603
 20
534.5643935529705
 30
0.0
 10
346.4157552636422
 20
534.7919702324652
 30
0.0
 10
347.2199620637879
 20
535.2789213036455
 30
0.0
 10
347.6199033744983
 20
535.5382943891344
 30
0.0
 10
348.4136284841346
 20
536.0907010233694
 30
0.0
 10
348.8074141102541
 20
536.3837327444635
 30
0.0
 10
349.3918984906659
 20
536.8500965926288
 30
0.0
 10
349.5856919890784
 20
537.0100225662779
 30
0.0
 10
349.826457172339
 20
537.2156999591094
 30
0.0
 10
349.874536320354
 20
537.2571239829292
 30
0.0
 10
349.9705420322433
 20
537.3405538409596
 30
0.0
 10
350.0184514448766
 20
537.3825451078857
 30
0.0
 10
350.1616929398432
 20
537.5091737989381
 30
0.0
 10
350.6363021677926
 20
537.9359691211059
 30
0.0
 10
351.096263098972
 20
538.3862736112928
 30
0.0
 10
351.8115741007485
 20
539.1370517713807
 30
0.0
 10
352.1589179064372
 20
539.52758487312
 30
0.0
 10
352.8309434723036
 20
540.3392890029634
 30
0.0
 10
353.1556273876978
 20
540.7604579470767
 30
0.0
 10
353.4678548012963
 20
541.1972202233696
 30
0.0
  0
SPLINE
  5
172
330
1F
100
AcDbEntity
  8
1
  6
Continuous
 62
    30
370
    13
100
AcDbSpline
210
0.0
220
0.0
230
1.0
 70
     8
 71
     3
 72
    46
 73
    42
 74
     0
 42
0.000000001
 43
0.0000000001
 40
0.0
 40
0.0
 40
0.0
 40
0.0
 40
0.0624999999999952
 40
0.0624999999999952
 40
0.1249999999999903
 40
0.1249999999999903
 40
0.1874999999999855
 40
0.1874999999999855
 40
0.2031249999999844
 40
0.2109374999999843
 40
0.2109374999999843
 40
0.2187499999999842
 40
0.2187499999999842
 40
0.2499999999999843
 40
0.2499999999999843
 40
0.3124999999999848
 40
0.3124999999999848
 40
0.3749999999999852
 40
0.3749999999999852
 40
0.4374999999999857
 40
0.4374999999999857
 40
0.4999999999999862
 40
0.4999999999999862
 40
0.5624999999999867
 40
0.5624999999999867
 40
0.5937499999999868
 40
0.6015624999999867
 40
0.6015624999999867
 40
0.6093749999999867
 40
0.6093749999999867
 40
0.6249999999999872
 40
0.6249999999999872
 40
0.6874999999999896
 40
0.6874999999999896
 40
0.7499999999999918
 40
0.7499999999999918
 40
0.8124999999999941
 40
0.8124999999999941
 40
0.8749999999999963
 40
0.8749999999999963
 40
1.0
 40
1.0
 40
1.0
 40
1.0
 10
360.7872087959109
 20
531.8839745231992
 30
0.0
 10
360.2242857758313
 20
531.2175759165098
 30
0.0
 10
359.640970404035
 20
530.5765071599659
 30
0.0
 10
358.4371122559625
 20
529.3424541681669
 30
0.0
 10
357.816563660825
 20
528.7494757164561
 30
0.0
 10
356.5411722937898
 20
527.6097129680786
 30
0.0
 10
355.8863254677402
 20
527.0629325254687
 30
0.0
 10
355.0478773736164
 20
526.4074758625723
 30
0.0
 10
354.7948497588803
 20
526.2129419999242
 30
0.0
 10
354.5396217375506
 20
526.0215437070281
 30
0.0
 10
354.3689849612215
 20
525.8946397039849
 30
0.0
 10
354.2833978388869
 20
525.8315161584306
 30
0.0
 10
353.8549139734898
 20
525.5181054556268
 30
0.0
 10
353.5099605346708
 20
525.2741247351391
 30
0.0
 10
352.4691398581303
 20
524.5616865874612
 30
0.0
 10
351.7673245454001
 20
524.1127117752403
 30
0.0
 10
350.3503580437841
 20
523.2633732702113
 30
0.0
 10
349.6352035634313
 20
522.8630149269441
 30
0.0
 10
348.1937300952482
 20
522.1081878978962
 30
0.0
 10
347.4674086951877
 20
521.7537229906259
 30
0.0
 10
346.0055034518851
 20
521.0884472174862
 30
0.0
 10
345.2699177760039
 20
520.7776390883356
 30
0.0
 10
343.7911793624161
 20
520.197831224119
 30
0.0
 10
343.0480251804093
 20
519.9288335165279
 30
0.0
 10
341.9287714916305
 20
519.5555487749818
 30
0.0
 10
341.4614722368134
 20
519.4063104890464
 30
0.0
 10
340.9931347686266
 20
519.2648142242992
 30
0.0
 10
340.8057194255014
 20
519.2088327837786
 30
0.0
 10
340.7119961850826
 20
519.1811581530401
 30
0.0
 10
340.431104283535
 20
519.0991688166023
 30
0.0
 10
340.2440916097162
 20
519.0458520564305
 30
0.0
 10
339.3103057894602
 20
518.7858507626929
 30
0.0
 10
338.5673693656908
 20
518.5988943096656
 30
0.0
 10
337.0904962847735
 20
518.2640319441291
 30
0.0
 10
336.3565586401758
 20
518.1161293750588
 30
0.0
 10
334.8984097218028
 20
517.8567805872883
 30
0.0
 10
334.1741976732664
 20
517.7453369225038
 30
0.0
 10
332.7361665310972
 20
517.5566600193569
 30
0.0
 10
332.0223468079021
 20
517.4794287850539
 30
0.0
 10
329.8974181504873
 20
517.2961029644881
 30
0.0
 10
328.5028416703569
 20
517.2382896593351
 30
0.0
 10
327.1327166009158
 20
517.238289659335
 30
0.0
  0
SPLINE
  5
173
330
1F
100
AcDbEntity
  8
1
  6
Continuous
 62
    30
370
    18
100
AcDbSpline
210
0.0
220
0.0
230
1.0
 70
     8
 71
     3
 72
    43
 73
    39
 74
     0
 42
0.000000001
 43
0.0000000001
 40
0.0
 40
0.0
 40
0.0
 40
0.0
 40
0.062500000000005
 40
0.062500000000005
 40
0.1250000000000099
 40
0.1250000000000099
 40
0.2500000000000207
 40
0.2500000000000207
 40
0.281250000000023
 40
0.2968750000000237
 40
0.3046875000000239
 40
0.3046875000000239
 40
0.3125000000000241
 40
0.3125000000000241
 40
0.3750000000000238
 40
0.3750000000000238
 40
0.4375000000000234
 40
0.4375000000000234
 40
0.500000000000023
 40
0.500000000000023
 40
0.5625000000000226
 40
0.5625000000000226
 40
0.6250000000000222
 40
0.6250000000000222
 40
0.6328125000000218
 40
0.6328125000000218
 40
0.6406250000000212
 40
0.6406250000000212
 40
0.65625000000002
 40
0.6875000000000181
 40
0.6875000000000181
 40
0.7500000000000143
 40
0.7500000000000143
 40
0.8125000000000107
 40
0.8125000000000107
 40
0.875000000000007
 40
0.875000000000007
 40
1.0
 40
1.0
 40
1.0
 40
1.0
 10
406.8599348701856
 20
541.1972202233696
 30
0.0
 10
407.1717456582232
 20
540.7610407476906
 30
0.0
 10
407.49537610171
 20
540.3412530232749
 30
0.0
 10
408.1637987029868
 20
539.5335258237442
 30
0.0
 10
408.5085932986706
 20
539.1455888992164
 30
0.0
 10
409.5713995211273
 20
538.0284995851513
 30
0.0
 10
410.317762522725
 20
537.3460140962821
 30
0.0
 10
411.2882873407761
 20
536.5683180326807
 30
0.0
 10
411.5822713050559
 20
536.3406718038709
 30
0.0
 10
411.9299080619193
 20
536.0849367361322
 30
0.0
 10
412.0798625362499
 20
535.9774416586374
 30
0.0
 10
412.1800437910777
 20
535.9062455987518
 30
0.0
 10
412.2302624026809
 20
535.8708658705357
 30
0.0
 10
412.682469926323
 20
535.555033185003
 30
0.0
 10
413.0866491033544
 20
535.2922698663419
 30
0.0
 10
413.8975645611839
 20
534.8002294885684
 30
0.0
 10
414.3043027916686
 20
534.5709544419192
 30
0.0
 10
415.118738333535
 20
534.1437088596184
 30
0.0
 10
415.526437168476
 20
533.945739808938
 30
0.0
 10
416.341418067069
 20
533.5791530460774
 30
0.0
 10
416.7487013465317
 20
533.4105364704636
 30
0.0
 10
417.5616567818932
 20
533.1008913652839
 30
0.0
 10
417.9673299247077
 20
532.9598637365451
 30
0.0
 10
418.4222177972777
 20
532.8158239186157
 30
0.0
 10
418.4727402233302
 20
532.8000225909187
 30
0.0
 10
418.5737418289197
 20
532.7688231485103
 30
0.0
 10
418.6242341192809
 20
532.7534211676312
 30
0.0
 10
418.7754672289175
 20
532.7078681620812
 30
0.0
 10
419.0770880334373
 20
532.6193328556561
 30
0.0
 10
419.3761491804911
 20
532.5383132558719
 30
0.0
 10
419.9708056773651
 20
532.3858057842767
 30
0.0
 10
420.3626198506457
 20
532.2968331344862
 30
0.0
 10
421.1367877166219
 20
532.1419419746013
 30
0.0
 10
421.5191421829899
 20
532.0760254481933
 30
0.0
 10
422.2742475481972
 20
531.9652028314543
 30
0.0
 10
422.646999021117
 20
531.9202983153571
 30
0.0
 10
423.7507060245064
 20
531.8143982191857
 30
0.0
 10
424.4671042934838
 20
531.7821370965999
 30
0.0
 10
425.163894835741
 20
531.7821370965999
 30
0.0
  0
SPLINE
  5
174
330
1F
100
AcDbEntity
  8
1
  6
Continuous
 62
    30
370
    13
100
AcDbSpline
210
0.0
220
0.0
230
1.0
 70
     8
 71
     3
 72
    45
 73
    41
 74
     0
 42
0.000000001
 43
0.0000000001
 40
0.0
 40
0.0
 40
0.0
 40
0.0
 40
0.1250000000000021
 40
0.1250000000000021
 40
0.1875000000000037
 40
0.1875000000000037
 40
0.2500000000000052
 40
0.2500000000000052
 40
0.3125000000000068
 40
0.3125000000000068
 40
0.3437500000000076
 40
0.3437500000000076
 40
0.3515625000000079
 40
0.3515625000000079
 40
0.3593750000000083
 40
0.3750000000000085
 40
0.4375000000000083
 40
0.4375000000000083
 40
0.500000000000008
 40
0.500000000000008
 40
0.5625000000000078
 40
0.5625000000000078
 40
0.6250000000000077
 40
0.6250000000000077
 40
0.6562500000000074
 40
0.6562500000000074
 40
0.6718750000000071
 40
0.6796875000000071
 40
0.6796875000000071
 40
0.6875000000000071
 40
0.6875000000000071
 40
0.7500000000000056
 40
0.7500000000000056
 40
0.8125000000000042
 40
0.8125000000000042
 40
0.8750000000000028
 40
0.8750000000000028
 40
0.9375000000000014
 40
0.9375000000000014
 40
1.0
 40
1.0
 40
1.0
 40
1.0
 10
433.195073070566
 20
517.238289659335
 30
0.0
 10
431.8252741202823
 20
517.238289659335
 30
0.0
 10
430.4299904689307
 20
517.2960683307474
 30
0.0
 10
428.3021996257861
 20
517.4797424277942
 30
0.0
 10
427.5871255273287
 20
517.5571577488598
 30
0.0
 10
426.145941787633
 20
517.7464338303934
 30
0.0
 10
425.4198315213655
 20
517.85829243092
 30
0.0
 10
423.9571979437553
 20
518.118814809492
 30
0.0
 10
423.2206738559372
 20
518.2674758169409
 30
0.0
 10
422.1085890109969
 20
518.5201201487849
 30
0.0
 10
421.736678143247
 20
518.6092802288542
 30
0.0
 10
421.2703277672574
 20
518.7271523132061
 30
0.0
 10
421.1769600668416
 20
518.7510542967522
 30
0.0
 10
420.9902022428214
 20
518.7994751444392
 30
0.0
 10
420.7100990940394
 20
518.8730137737214
 30
0.0
 10
419.6834666989953
 20
519.152686112765
 30
0.0
 10
418.751662713633
 20
519.437601203446
 30
0.0
 10
417.2640835451576
 20
519.9344078922361
 30
0.0
 10
416.5219462684597
 20
520.2032804253681
 30
0.0
 10
415.0425024710825
 20
520.783972060246
 30
0.0
 10
414.3051943169672
 20
521.0957883896199
 30
0.0
 10
412.8371114637713
 20
521.764761446181
 30
0.0
 10
412.106334631475
 20
522.1219143901699
 30
0.0
 10
411.0165227046122
 20
522.6938095243888
 30
0.0
 10
410.6543129829622
 20
522.8904730092531
 30
0.0
 10
410.1127927300166
 20
523.1948287761884
 30
0.0
 10
409.8424814247675
 20
523.3493472720289
 30
0.0
 10
409.5728837112568
 20
523.5074399426804
 30
0.0
 10
409.3933151344959
 20
523.6136366864902
 30
0.0
 10
409.3036184889399
 20
523.6671327571064
 30
0.0
 10
408.498401071549
 20
524.1514488737486
 30
0.0
 10
407.7949343149018
 20
524.6035696294817
 30
0.0
 10
406.4145598149356
 20
525.552048348648
 30
0.0
 10
405.7376496472389
 20
526.0484040166356
 30
0.0
 10
404.412677694124
 20
527.0867431957347
 30
0.0
 10
403.7646126203003
 20
527.6287233469426
 30
0.0
 10
402.5000028168378
 20
528.7601771534255
 30
0.0
 10
401.8834534722536
 20
529.3496458596563
 30
0.0
 10
400.6850461848157
 20
530.5785397636117
 30
0.0
 10
400.1031815312057
 20
531.2179575374582
 30
0.0
 10
399.5405808755709
 20
531.8839745231992
 30
0.0
  0
SPLINE
  5
175
330
1F
100
AcDbEntity
  8
1
  6
Continuous
 62
    30
370
    13
100
AcDbSpline
210
0.0
220
0.0
230
1.0
 70
     8
 71
     3
 72
    31
 73
    27
 74
     0
 42
0.000000001
 43
0.0000000001
 40
0.0
 40
0.0
 40
0.0
 40
0.0
 40
0.0624999999999988
 40
0.0624999999999988
 40
0.0937499999999975
 40
0.0937499999999975
 40
0.1249999999999961
 40
0.1249999999999961
 40
0.2499999999999901
 40
0.2499999999999901
 40
0.374999999999984
 40
0.374999999999984
 40
0.4999999999999779
 40
0.4999999999999779
 40
0.5312499999999779
 40
0.5312499999999779
 40
0.5468749999999779
 40
0.5468749999999779
 40
0.5624999999999779
 40
0.6249999999999811
 40
0.6249999999999811
 40
0.7499999999999875
 40
0.7499999999999875
 40
0.8749999999999937
 40
0.8749999999999937
 40
1.0
 40
1.0
 40
1.0
 40
1.0
 10
672.2561661514804
 20
531.8839745231992
 30
0.0
 10
672.1121281242828
 20
532.3074559640345
 30
0.0
 10
671.974021374648
 20
532.7377601871891
 30
0.0
 10
671.7757764949937
 20
533.3935991265996
 30
0.0
 10
671.711143119508
 20
533.6140830739919
 30
0.0
 10
671.5851696750583
 20
534.0574246402269
 30
0.0
 10
671.5238015031299
 20
534.2803665802088
 30
0.0
 10
671.2249905749221
 20
535.4014164355405
 30
0.0
 10
671.0115931639064
 20
536.3185165010455
 30
0.0
 10
670.6352108353583
 20
538.1932896108291
 30
0.0
 10
670.4722250480173
 20
539.1509609519906
 30
0.0
 10
670.1969155038282
 20
541.1076726015252
 30
0.0
 10
670.084586997049
 20
542.1067086652666
 30
0.0
 10
669.9767563978698
 20
543.3823753603372
 30
0.0
 10
669.9568225002914
 20
543.6388545174907
 30
0.0
 10
669.9293973243572
 20
544.0256181504254
 30
0.0
 10
669.9206638892754
 20
544.1549539932874
 30
0.0
 10
669.9040658642693
 20
544.4136901730109
 30
0.0
 10
669.8647226834568
 20
545.060953654351
 30
0.0
 10
669.8360719328784
 20
545.7103216077637
 30
0.0
 10
669.7874826122103
 20
547.2727860707987
 30
0.0
 10
669.7819463189135
 20
548.319731738684
 30
0.0
 10
669.8236957299599
 20
550.424059718732
 30
0.0
 10
669.8709826315451
 20
551.4814422670521
 30
0.0
 10
670.0187632469886
 20
553.6066595827326
 30
0.0
 10
670.1192539670994
 20
554.6744940352403
 30
0.0
 10
670.2471864280178
 20
555.7476543379792
 30
0.0
  0
SPLINE
  5
176
330
1F
100
AcDbEntity
  8
1
  6
Continuous
 62
    30
370
    13
100
AcDbSpline
210
0.0
220
0.0
230
1.0
 70
     8
 71
     3
 72
    32
 73
    28
 74
     0
 42
0.000000001
 43
0.0000000001
 40
0.0
 40
0.0
 40
0.0
 40
0.0
 40
0.062499999999985
 40
0.062499999999985
 40
0.0781249999999829
 40
0.0781249999999829
 40
0.0937499999999808
 40
0.1249999999999799
 40
0.1249999999999799
 40
0.2499999999999798
 40
0.2499999999999798
 40
0.3749999999999797
 40
0.3749999999999797
 40
0.4999999999999796
 40
0.4999999999999796
 40
0.5312499999999802
 40
0.5312499999999802
 40
0.5468749999999815
 40
0.5468749999999815
 40
0.5624999999999826
 40
0.624999999999985
 40
0.624999999999985
 40
0.74999999999999
 40
0.74999999999999
 40
0.874999999999995
 40
0.874999999999995
 40
1.0
 40
1.0
 40
1.0
 40
1.0
 10
837.4384906981365
 20
555.7476543379792
 30
0.0
 10
837.5024759801599
 20
555.2109143727338
 30
0.0
 10
837.5598015783082
 20
554.6736987256518
 30
0.0
 10
837.6231217971709
 20
554.0015854483415
 30
0.0
 10
837.6353697929637
 20
553.8671177139033
 30
0.0
 10
837.6589957977833
 20
553.5985352681205
 30
0.0
 10
837.6931444934463
 20
553.1960391863018
 30
0.0
 10
837.723443025011
 20
552.7946711756367
 30
0.0
 10
837.8159614123722
 20
551.4592667223543
 30
0.0
 10
837.8629024491735
 20
550.3988960435697
 30
0.0
 10
837.9038132491023
 20
548.2937930497965
 30
0.0
 10
837.8977812542856
 20
547.2490611087131
 30
0.0
 10
837.8326353170283
 20
545.1752578693576
 30
0.0
 10
837.7735238166093
 20
544.1461860641475
 30
0.0
 10
837.6655859577053
 20
542.8698288475847
 30
0.0
 10
837.6422926689878
 20
542.6150572696046
 30
0.0
 10
837.604767601443
 20
542.2336556329503
 30
0.0
 10
837.5918338057719
 20
542.1067095498574
 30
0.0
 10
837.5651726108617
 20
541.853724536931
 30
0.0
 10
837.4964977270345
 20
541.2231492741847
 30
0.0
 10
837.4177803964775
 20
540.6019375059277
 30
0.0
 10
837.2099400642003
 20
539.1285702283884
 30
0.0
 10
837.0461914596727
 20
538.1696848123712
 30
0.0
 10
836.6693003927439
 20
536.2970573973303
 30
0.0
 10
836.456154460243
 20
535.3833194107534
 30
0.0
 10
835.9803082347031
 20
533.6002894140188
 30
0.0
 10
835.7176079360922
 20
532.7309988729169
 30
0.0
 10
835.4295109746738
 20
531.8839745231993
 30
0.0
  0
SPLINE
  5
177
330
1F
100
AcDbEntity
  8
1
  6
Continuous
 62
    30
370
    13
100
AcDbSpline
210
0.0
220
0.0
230
1.0
 70
     8
 71
     3
 72
    32
 73
    28
 74
     0
 42
0.000000001
 43
0.0000000001
 40
0.0
 40
0.0
 40
0.0
 40
0.0
 40
0.1250000000000152
 40
0.2500000000000304
 40
0.2500000000000304
 40
0.3750000000000455
 40
0.3750000000000455
 40
0.4062500000000451
 40
0.4062500000000451
 40
0.4375000000000446
 40
0.4375000000000446
 40
0.4687500000000441
 40
0.4687500000000441
 40
0.5000000000000436
 40
0.5000000000000436
 40
0.6250000000000322
 40
0.6250000000000322
 40
0.7500000000000207
 40
0.7500000000000207
 40
0.8750000000000092
 40
0.8750000000000092
 40
0.9062500000000066
 40
0.9062500000000066
 40
0.921875000000005
 40
0.921875000000005
 40
0.9375000000000033
 40
1.0
 40
1.0
 40
1.0
 40
1.0
 10
682.5406646831735
 20
554.2821370965999
 30
0.0
 10
682.4310770296936
 20
553.6911745645693
 30
0.0
 10
682.258548839464
 20
552.512057695593
 30
0.0
 10
682.1778525856505
 20
551.3385912601473
 30
0.0
 10
682.143460415247
 20
550.1680030315216
 30
0.0
 10
682.1494122414633
 20
549.5841478249378
 30
0.0
 10
682.1867688682655
 20
548.8561855969956
 30
0.0
 10
682.1957488315377
 20
548.7105818221945
 30
0.0
 10
682.2166601174545
 20
548.4206043788154
 30
0.0
 10
682.2285946535766
 20
548.276125851075
 30
0.0
 10
682.2554118831605
 20
547.988184678821
 30
0.0
 10
682.2703112548965
 20
547.8445940198155
 30
0.0
 10
682.3029212181765
 20
547.559507850594
 30
0.0
 10
682.3206378514732
 20
547.4179171160823
 30
0.0
 10
682.4161473256771
 20
546.7146292584822
 30
0.0
 10
682.5146681999929
 20
546.1668984549952
 30
0.0
 10
682.7534270396121
 20
545.0993129759529
 30
0.0
 10
682.8936741808235
 20
544.5794644045526
 30
0.0
 10
683.2145238825423
 20
543.566415210627
 30
0.0
 10
683.3951314305061
 20
543.0732181600499
 30
0.0
 10
683.6458321159245
 20
542.472943293386
 30
0.0
 10
683.6972213813352
 20
542.3537005764742
 30
0.0
 10
683.7761796595146
 20
542.1760501221523
 30
0.0
 10
683.8028227784907
 20
542.1170111487377
 30
0.0
 10
683.856674192181
 20
541.9994676081775
 30
0.0
 10
683.9926891903016
 20
541.7069996410983
 30
0.0
 10
684.1355852936609
 20
541.4214188630991
 30
0.0
 10
684.2542062120093
 20
541.1972202233696
 30
0.0
  0
SPLINE
  5
178
330
1F
100
AcDbEntity
  8
1
  6
Continuous
 62
    30
370
    13
100
AcDbSpline
210
0.0
220
0.0
230
1.0
 70
     8
 71
     3
 72
    35
 73
    31
 74
     0
 42
0.000000001
 43
0.0000000001
 40
0.0
 40
0.0
 40
0.0
 40
0.0
 40
0.1250000000000082
 40
0.1250000000000082
 40
0.2500000000000165
 40
0.2500000000000165
 40
0.3750000000000248
 40
0.3750000000000248
 40
0.4375000000000315
 40
0.4375000000000315
 40
0.4687500000000321
 40
0.4687500000000321
 40
0.4843750000000349
 40
0.4843750000000349
 40
0.5000000000000379
 40
0.6250000000000343
 40
0.7500000000000308
 40
0.7500000000000308
 40
0.812500000000029
 40
0.812500000000029
 40
0.843750000000028
 40
0.843750000000028
 40
0.8593750000000274
 40
0.8593750000000274
 40
0.875000000000027
 40
0.9062500000000202
 40
0.9062500000000202
 40
0.9375000000000135
 40
0.9375000000000135
 40
1.0
 40
1.0
 40
1.0
 40
1.0
 10
823.4314709141449
 20
541.1972202233696
 30
0.0
 10
823.6685384007442
 20
541.6452879736423
 30
0.0
 10
823.8867647802405
 20
542.1072218326574
 30
0.0
 10
824.2851865309541
 20
543.0595903310252
 30
0.0
 10
824.4653862572911
 20
543.5500212680438
 30
0.0
 10
824.7866110661921
 20
544.5606874584852
 30
0.0
 10
824.9276439894575
 20
545.0809165449183
 30
0.0
 10
825.108222275747
 20
545.8851034935094
 30
0.0
 10
825.1632448464063
 20
546.1571455949215
 30
0.0
 10
825.2377364168851
 20
546.5714278380935
 30
0.0
 10
825.2612258929732
 20
546.7105589135667
 30
0.0
 10
825.2944061619098
 20
546.92084688478
 30
0.0
 10
825.3051147881251
 20
546.991154587868
 30
0.0
 10
825.3257767437913
 20
547.1318452245742
 30
0.0
 10
825.4154231173326
 20
547.7657466672497
 30
0.0
 10
825.5285232736861
 20
548.9765325304843
 30
0.0
 10
825.5423180241271
 20
550.1383336385522
 30
0.0
 10
825.5175982771988
 20
551.0181070637017
 30
0.0
 10
825.5035051924398
 20
551.3127703283283
 30
0.0
 10
825.4734627667207
 20
551.7568996024272
 30
0.0
 10
825.461964232314
 20
551.905298536112
 30
0.0
 10
825.4424689582964
 20
552.1284350214064
 30
0.0
 10
825.4355923556299
 20
552.2029385344125
 30
0.0
 10
825.4211095024621
 20
552.3518900494107
 30
0.0
 10
825.3982892016857
 20
552.5752647180469
 30
0.0
 10
825.3721911161069
 20
552.7984818579721
 30
0.0
 10
825.3344939902462
 20
553.0959649138365
 30
0.0
 10
825.3141904131909
 20
553.244671307024
 30
0.0
 10
825.2489808210362
 20
553.6903333979076
 30
0.0
 10
825.1998102696194
 20
553.9866342607248
 30
0.0
 10
825.1450124429807
 20
554.2821370965999
 30
0.0
  0
SPLINE
  5
179
330
1F
100
AcDbEntity
  8
1
  6
Continuous
 62
    30
370
    18
100
AcDbSpline
210
0.0
220
0.0
230
1.0
 70
     8
 71
     3
 72
     8
 73
     4
 74
     0
 42
0.000000001
 43
0.0000000001
 40
0.0
 40
0.0
 40
0.0
 40
0.0
 40
1.0
 40
1.0
 40
1.0
 40
1.0
 10
731.3404402064407
 20
604.9126800003023
 30
0.0
 10
730.3275119425409
 20
604.41508287683
 30
0.0
 10
729.7503769898271
 20
603.6396560289394
 30
0.0
 10
729.6145315015832
 20
602.5889767498145
 30
0.0
  0
SPLINE
  5
17A
330
1F
100
AcDbEntity
  8
1
  6
Continuous
 62
    30
370
    18
100
AcDbSpline
210
0.0
220
0.0
230
1.0
 70
    24
 71
     3
 72
     8
 73
     4
 74
     0
 42
0.000000001
 43
0.0000000001
 40
0.0
 40
0.0
 40
0.0
 40
0.0
 40
1.0
 40
1.0
 40
1.0
 40
1.0
 10
729.6145315015832
 20
602.5889767498145
 30
0.0
 10
729.603729814238
 20
602.5839115498952
 30
0.0
 10
729.5929281268928
 20
602.578846349976
 30
0.0
 10
729.5821264395477
 20
602.5737811500566
 30
0.0
  0
SPLINE
  5
17B
330
1F
100
AcDbEntity
  8
1
  6
Continuous
 62
    30
370
    18
100
AcDbSpline
210
0.0
220
0.0
230
1.0
 70
    24
 71
     3
 72
     8
 73
     4
 74
     0
 42
0.000000001
 43
0.0000000001
 40
0.0
 40
0.0
 40
0.0
 40
0.0
 40
1.0
 40
1.0
 40
1.0
 40
1.0
 10
729.5821264395477
 20
602.5737811500566
 30
0.0
 10
729.4169453980506
 20
602.9260345643401
 30
0.0
 10
729.2517643565536
 20
603.2782879786234
 30
0.0
 10
729.0865833150566
 20
603.6305413929069
 30
0.0
  0
SPLINE
  5
17C
330
1F
100
AcDbEntity
  8
1
  6
Continuous
 62
    30
370
    18
100
AcDbSpline
210
0.0
220
0.0
230
1.0
 70
    24
 71
     3
 72
     8
 73
     4
 74
     0
 42
0.000000001
 43
0.0000000001
 40
0.0
 40
0.0
 40
0.0
 40
0.0
 40
1.0
 40
1.0
 40
1.0
 40
1.0
 10
729.0865833150566
 20
603.6305413929069
 30
0.0
 10
728.6574617359805
 20
603.4293148142949
 30
0.0
 10
728.2283401569044
 20
603.228088235683
 30
0.0
 10
727.7992185778284
 20
603.026861657071
 30
0.0
  0
SPLINE
  5
17D
330
1F
100
AcDbEntity
  8
1
  6
Continuous
 62
    30
370
    18
100
AcDbSpline
210
0.0
220
0.0
230
1.0
 70
    24
 71
     3
 72
     8
 73
     4
 74
     0
 42
0.000000001
 43
0.0000000001
 40
0.0
 40
0.0
 40
0.0
 40
0.0
 40
1.0
 40
1.0
 40
1.0
 40
1.0
 10
727.7992185778284
 20
603.026861657071
 30
0.0
 10
728.9804071089951
 20
600.5079424806029
 30
0.0
 10
730.1615956401617
 20
597.9890233041347
 30
0.0
 10
731.3427841713285
 20
595.4701041276664
 30
0.0
  0
SPLINE
  5
17E
330
1F
100
AcDbEntity
  8
1
  6
Continuous
 62
    30
370
    18
100
AcDbSpline
210
0.0
220
0.0
230
1.0
 70
     8
 71
     3
 72
    10
 73
     6
 74
     0
 42
0.000000001
 43
0.0000000001
 40
0.0
 40
0.0
 40
0.0
 40
0.0
 40
0.1850227562316918
 40
0.1850227562316918
 40
1.0
 40
1.0
 40
1.0
 40
1.0
 10
731.3347848400066
 20
598.8719399710626
 30
0.0
 10
731.2242940856956
 20
599.0581724770152
 30
0.0
 10
731.1180345396124
 20
599.2600937536425
 30
0.0
 10
730.5666290292526
 20
600.4359821723046
 30
0.0
 10
730.4164723100911
 20
601.3156435207836
 30
0.0
 10
730.5671300771343
 20
602.1209205670228
 30
0.0
  0
SPLINE
  5
17F
330
1F
100
AcDbEntity
  8
1
  6
Continuous
 62
    30
370
    18
100
AcDbSpline
210
0.0
220
0.0
230
1.0
 70
     8
 71
     3
 72
     8
 73
     4
 74
     0
 42
0.000000001
 43
0.0000000001
 40
0.0
 40
0.0
 40
0.0
 40
0.0
 40
1.0
 40
1.0
 40
1.0
 40
1.0
 10
730.5671300771343
 20
602.1209205670228
 30
0.0
 10
730.6770542522231
 20
602.7191634459155
 30
0.0
 10
730.9320629714873
 20
603.1820201044575
 30
0.0
 10
731.3321562349273
 20
603.5094905426485
 30
0.0
  0
SPLINE
  5
180
330
1F
100
AcDbEntity
  8
1
  6
Continuous
 62
    30
370
    18
100
AcDbSpline
210
0.0
220
0.0
230
1.0
 70
     8
 71
     3
 72
    10
 73
     6
 74
     0
 42
0.000000001
 43
0.0000000001
 40
0.0
 40
0.0
 40
0.0
 40
0.0
 40
0.0609637741953516
 40
0.0609637741953516
 40
1.0
 40
1.0
 40
1.0
 40
1.0
 10
776.3535344784797
 20
595.4996141119549
 30
0.0
 10
776.4246232150213
 20
595.6409373779974
 30
0.0
 10
776.4960416351399
 20
595.7883290079754
 30
0.0
 10
777.6729389752874
 20
598.3055615110356
 30
0.0
 10
778.778088211739
 20
600.669334020182
 30
0.0
 10
779.8832374481906
 20
603.0331065293284
 30
0.0
  0
SPLINE
  5
181
330
1F
100
AcDbEntity
  8
1
  6
Continuous
 62
    30
370
    18
100
AcDbSpline
210
0.0
220
0.0
230
1.0
 70
    24
 71
     3
 72
     8
 73
     4
 74
     0
 42
0.000000001
 43
0.0000000001
 40
0.0
 40
0.0
 40
0.0
 40
0.0
 40
1.0
 40
1.0
 40
1.0
 40
1.0
 10
779.8832374481906
 20
603.0331065293284
 30
0.0
 10
779.4479916765401
 20
603.2365996871289
 30
0.0
 10
779.0127459048898
 20
603.4400928449294
 30
0.0
 10
778.5775001332395
 20
603.6435860027299
 30
0.0
  0
SPLINE
  5
182
330
1F
100
AcDbEntity
  8
1
  6
Continuous
 62
    30
370
    18
100
AcDbSpline
210
0.0
220
0.0
230
1.0
 70
    24
 71
     3
 72
     8
 73
     4
 74
     0
 42
0.000000001
 43
0.0000000001
 40
0.0
 40
0.0
 40
0.0
 40
0.0
 40
1.0
 40
1.0
 40
1.0
 40
1.0
 10
778.5775001332395
 20
603.6435860027299
 30
0.0
 10
778.4244586335838
 20
603.3162498586937
 30
0.0
 10
778.271417133928
 20
602.9889137146574
 30
0.0
 10
778.1183756342724
 20
602.6615775706213
 30
0.0
  0
SPLINE
  5
183
330
1F
100
AcDbEntity
  8
1
  6
Continuous
 62
    30
370
    18
100
AcDbSpline
210
0.0
220
0.0
230
1.0
 70
    24
 71
     3
 72
     8
 73
     4
 74
     0
 42
0.000000001
 43
0.0000000001
 40
0.0
 40
0.0
 40
0.0
 40
0.0
 40
1.0
 40
1.0
 40
1.0
 40
1.0
 10
778.1183756342724
 20
602.6615775706213
 30
0.0
 10
778.1075681771886
 20
602.6666304481287
 30
0.0
 10
778.0967607201047
 20
602.6716833256362
 30
0.0
 10
778.0859532630208
 20
602.6767362031437
 30
0.0
  0
SPLINE
  5
184
330
1F
100
AcDbEntity
  8
1
  6
Continuous
 62
    30
370
    18
100
AcDbSpline
210
0.0
220
0.0
230
1.0
 70
     8
 71
     3
 72
     8
 73
     4
 74
     0
 42
0.000000001
 43
0.0000000001
 40
0.0
 40
0.0
 40
0.0
 40
0.0
 40
1.0
 40
1.0
 40
1.0
 40
1.0
 10
778.0859532630208
 20
602.6767362031437
 30
0.0
 10
777.842382247198
 20
603.6988596263892
 30
0.0
 10
777.2643548753608
 20
604.4413778693456
 30
0.0
 10
776.3530562712496
 20
604.9068257597307
 30
0.0
  0
SPLINE
  5
185
330
1F
100
AcDbEntity
  8
1
  6
Continuous
 62
    30
370
    18
100
AcDbSpline
210
0.0
220
0.0
230
1.0
 70
     8
 71
     3
 72
     8
 73
     4
 74
     0
 42
0.000000001
 43
0.0000000001
 40
0.0
 40
0.0
 40
0.0
 40
0.0
 40
1.0
 40
1.0
 40
1.0
 40
1.0
 10
776.3539775138228
 20
603.4291159052127
 30
0.0
 10
776.7027071702164
 20
603.1281347147545
 30
0.0
 10
776.9459796228994
 20
602.7279650301775
 30
0.0
 10
777.0824274655296
 20
602.2281241018065
 30
0.0
  0
SPLINE
  5
186
330
1F
100
AcDbEntity
  8
1
  6
Continuous
 62
    30
370
    18
100
AcDbSpline
210
0.0
220
0.0
230
1.0
 70
     8
 71
     3
 72
    10
 73
     6
 74
     0
 42
0.000000001
 43
0.0000000001
 40
0.0
 40
0.0
 40
0.0
 40
0.0
 40
0.8036066938034344
 40
0.8036066938034344
 40
1.0
 40
1.0
 40
1.0
 40
1.0
 10
777.0824274655296
 20
602.2281241018065
 30
0.0
 10
777.2837152783598
 20
601.4986170125699
 30
0.0
 10
777.1569478542164
 20
600.6436186131641
 30
0.0
 10
776.5873033341516
 20
599.4252220273434
 30
0.0
 10
776.4713059170415
 20
599.205856484074
 30
0.0
 10
776.351272448305
 20
599.0064410439732
 30
0.0
  0
SPLINE
  5
187
330
1F
100
AcDbEntity
  8
1
  6
Continuous
 62
    30
370
    18
100
AcDbSpline
210
0.0
220
0.0
230
1.0
 70
     8
 71
     3
 72
    80
 73
    76
 74
     0
 42
0.000000001
 43
0.0000000001
 40
0.0
 40
0.0
 40
0.0
 40
0.0
 40
0.0312499999999974
 40
0.0312499999999974
 40
0.0624999999999948
 40
0.0624999999999948
 40
0.0937499999999922
 40
0.0937499999999922
 40
0.1015624999999909
 40
0.1015624999999909
 40
0.1093749999999895
 40
0.1171874999999881
 40
0.1210937499999881
 40
0.1210937499999881
 40
0.1249999999999882
 40
0.1249999999999882
 40
0.1562499999999882
 40
0.1562499999999882
 40
0.1874999999999882
 40
0.1874999999999882
 40
0.2187499999999883
 40
0.2187499999999883
 40
0.2499999999999883
 40
0.2499999999999883
 40
0.2578124999999881
 40
0.2578124999999881
 40
0.2656249999999878
 40
0.2812499999999882
 40
0.2812499999999882
 40
0.3124999999999892
 40
0.3124999999999892
 40
0.3437499999999902
 40
0.3437499999999902
 40
0.3749999999999911
 40
0.3749999999999911
 40
0.4062499999999921
 40
0.4062499999999921
 40
0.437499999999993
 40
0.437499999999993
 40
0.4531249999999934
 40
0.4531249999999934
 40
0.4609374999999936
 40
0.4687499999999937
 40
0.4999999999999941
 40
0.4999999999999941
 40
0.5312499999999946
 40
0.5312499999999946
 40
0.5624999999999949
 40
0.5624999999999949
 40
0.6249999999999958
 40
0.6249999999999958
 40
0.6874999999999968
 40
0.6874999999999968
 40
0.7499999999999977
 40
0.7499999999999977
 40
0.7578124999999977
 40
0.7578124999999977
 40
0.7656249999999977
 40
0.7656249999999977
 40
0.7812499999999979
 40
0.8124999999999981
 40
0.8124999999999981
 40
0.8749999999999988
 40
0.8749999999999988
 40
0.9374999999999996
 40
0.9374999999999996
 40
0.9687499999999999
 40
0.9687499999999999
 40
0.9843750000000003
 40
0.9921875000000003
 40
0.9960937500000001
 40
0.9980468749999998
 40
0.9990234374999999
 40
0.9990234374999999
 40
1.0
 40
1.0
 40
1.0
 40
1.0
 10
729.3786572956813
 20
554.9578127722755
 30
0.0
 10
729.4088263760888
 20
554.4005007617639
 30
0.0
 10
729.4576431597791
 20
553.8509219779874
 30
0.0
 10
729.5902790981152
 20
552.7661847066377
 30
0.0
 10
729.6741037118676
 20
552.2310287984602
 30
0.0
 10
729.8751476800483
 20
551.1743962567667
 30
0.0
 10
729.992370429853
 20
550.6529212373202
 30
0.0
 10
730.1591028260472
 20
550.0093113478804
 30
0.0
 10
730.1933806979041
 20
549.8813130072843
 30
0.0
 10
730.263687437077
 20
549.6269858198665
 30
0.0
 10
730.3357671987728
 20
549.3742430043011
 30
0.0
 10
730.4301982258642
 20
549.0621795212558
 30
0.0
 10
730.4887636771788
 20
548.8766406610448
 30
0.0
 10
730.5282266725594
 20
548.7533215438256
 30
0.0
 10
730.5481764855897
 20
548.6918228472298
 30
0.0
 10
730.729284579612
 20
548.1409251721548
 30
0.0
 10
730.9016453867033
 20
547.6685388509883
 30
0.0
 10
731.2662322486304
 20
546.7537969255633
 30
0.0
 10
731.4584683733893
 20
546.3114575177294
 30
0.0
 10
731.8606964375588
 20
545.4534757007024
 30
0.0
 10
732.0706944647885
 20
545.0378430570408
 30
0.0
 10
732.5068481018924
 20
544.2307505321858
 30
0.0
 10
732.7330075774757
 20
543.8392968386916
 30
0.0
 10
733.0250363658032
 20
543.3638723506884
 30
0.0
 10
733.0839495065619
 20
543.2694215794507
 30
0.0
 10
733.2023165739407
 20
543.0824745248923
 30
0.0
 10
733.3807856570787
 20
542.8048064533946
 30
0.0
 10
733.5619229768249
 20
542.5351209128182
 30
0.0
 10
733.9275506601703
 20
542.005748490243
 30
0.0
 10
734.1757662560328
 20
541.6661432453564
 30
0.0
 10
734.6802322310873
 20
541.0107413530772
 30
0.0
 10
734.936484745322
 20
540.6949515231427
 30
0.0
 10
735.4563338926065
 20
540.0850072648582
 30
0.0
 10
735.7199319363616
 20
539.7908573324389
 30
0.0
 10
736.2539254403074
 20
539.2224715658772
 30
0.0
 10
736.5243218642856
 20
538.9482387988969
 30
0.0
 10
737.0714747205193
 20
538.4183075603
 30
0.0
 10
737.3482318291052
 20
538.1626112393166
 30
0.0
 10
737.767873375232
 20
537.7921313810828
 30
0.0
 10
737.9085054769432
 20
537.6708174112689
 30
0.0
 10
738.1205528344457
 20
537.4920258861882
 30
0.0
 10
738.2623453287737
 20
537.3738415601356
 30
0.0
 10
738.6887966116925
 20
537.0264659683489
 30
0.0
 10
739.0463670972222
 20
536.7516065935135
 30
0.0
 10
739.6211117631067
 20
536.3292005608704
 30
0.0
 10
739.9098002981174
 20
536.1266840111781
 30
0.0
 10
740.4896660812083
 20
535.737925526405
 30
0.0
 10
740.7808435157892
 20
535.5516850266843
 30
0.0
 10
741.6579336503146
 20
535.0160250207946
 30
0.0
 10
742.2473955792151
 20
534.6896052153771
 30
0.0
 10
743.4350991572526
 20
534.0927096255256
 30
0.0
 10
744.0333432872208
 20
533.822253158742
 30
0.0
 10
745.2381746077654
 20
533.3336656380201
 30
0.0
 10
745.8447631718012
 20
533.1155456418288
 30
0.0
 10
746.5317295757684
 20
532.8982945065625
 30
0.0
 10
746.6081225395027
 20
532.874546977423
 30
0.0
 10
746.7610348903652
 20
532.8278315671173
 30
0.0
 10
746.8375487657676
 20
532.804865573603
 30
0.0
 10
747.0670903697612
 20
532.7371866898565
 30
0.0
 10
747.5263594556202
 20
532.6066486672279
 30
0.0
 10
747.9861862441564
 20
532.4903561402798
 30
0.0
 10
748.9065864126549
 20
532.2762985455231
 30
0.0
 10
749.5211809955101
 20
532.1582666593952
 30
0.0
 10
750.7523988015216
 20
531.969855610023
 30
0.0
 10
751.3690219535908
 20
531.8994802605735
 30
0.0
 10
752.2955321858424
 20
531.8290846547233
 30
0.0
 10
752.6046317733196
 20
531.8114875214079
 30
0.0
 10
753.068684660617
 20
531.7938818013197
 30
0.0
 10
753.3008120077294
 20
531.7872770520329
 30
0.0
 10
753.5718061440746
 20
531.783422059049
 30
0.0
 10
753.7073482494596
 20
531.7824581680029
 30
0.0
 10
753.7751306012401
 20
531.7822172586192
 30
0.0
 10
753.8041826061352
 20
531.7821656782036
 30
0.0
 10
753.8235511488988
 20
531.7821427745414
 30
0.0
 10
753.8331913049435
 20
531.7821370965999
 30
0.0
 10
753.8428385630771
 20
531.7821370965999
 30
0.0
  0
SPLINE
  5
188
330
1F
100
AcDbEntity
  8
1
  6
Continuous
 62
    30
370
    13
100
AcDbSpline
210
0.0
220
0.0
230
1.0
 70
     8
 71
     3
 72
    78
 73
    74
 74
     0
 42
0.000000001
 43
0.0000000001
 40
0.0
 40
0.0
 40
0.0
 40
0.0
 40
0.0009765625
 40
0.0009765625
 40
0.0019531249999999
 40
0.00390625
 40
0.0078125
 40
0.0156249999999999
 40
0.0312499999999996
 40
0.0312499999999996
 40
0.0624999999999993
 40
0.0624999999999993
 40
0.1249999999999986
 40
0.1249999999999986
 40
0.1874999999999979
 40
0.1874999999999979
 40
0.2187499999999974
 40
0.2343749999999971
 40
0.2343749999999971
 40
0.2499999999999969
 40
0.2499999999999969
 40
0.3124999999999948
 40
0.3124999999999948
 40
0.3749999999999928
 40
0.3749999999999928
 40
0.4374999999999907
 40
0.4374999999999907
 40
0.4999999999999887
 40
0.4999999999999887
 40
0.5312499999999877
 40
0.5390624999999876
 40
0.5390624999999876
 40
0.5468749999999875
 40
0.5468749999999875
 40
0.5624999999999871
 40
0.5624999999999871
 40
0.5937499999999868
 40
0.5937499999999868
 40
0.6249999999999865
 40
0.6249999999999865
 40
0.656249999999986
 40
0.656249999999986
 40
0.6874999999999856
 40
0.6874999999999856
 40
0.7187499999999851
 40
0.7187499999999851
 40
0.7343749999999849
 40
0.7421874999999847
 40
0.7460937499999849
 40
0.7460937499999849
 40
0.749999999999985
 40
0.749999999999985
 40
0.7812499999999862
 40
0.7812499999999862
 40
0.8124999999999876
 40
0.8124999999999876
 40
0.8437499999999888
 40
0.8437499999999888
 40
0.87499999999999
 40
0.87499999999999
 40
0.882812499999991
 40
0.882812499999991
 40
0.8906249999999919
 40
0.8984374999999929
 40
0.9023437499999927
 40
0.9023437499999927
 40
0.9062499999999926
 40
0.9062499999999926
 40
0.937499999999995
 40
0.937499999999995
 40
0.9687499999999976
 40
0.9687499999999976
 40
1.0
 40
1.0
 40
1.0
 40
1.0
 10
753.8428385630771
 20
531.7821370965999
 30
0.0
 10
753.8283419457415
 20
531.7821370965999
 30
0.0
 10
753.8138622574807
 20
531.782142548646
 30
0.0
 10
753.784739415676
 20
531.7821645785472
 30
0.0
 10
753.741056289774
 20
531.7822142006037
 30
0.0
 10
753.6391369498758
 20
531.7824460084472
 30
0.0
 10
753.4353300559536
 20
531.783373583706
 30
0.0
 10
753.0278431815958
 20
531.7870836105733
 30
0.0
 10
752.6787855200827
 20
531.7934404740787
 30
0.0
 10
751.9809575154999
 20
531.8103862792407
 30
0.0
 10
751.5161218351723
 20
531.8273247202326
 30
0.0
 10
750.1227535008314
 20
531.8950896009562
 30
0.0
 10
749.1953579521557
 20
531.9628400721401
 30
0.0
 10
747.3435842659467
 20
532.1442253914983
 30
0.0
 10
746.4192060376088
 20
532.2578567357482
 30
0.0
 10
745.0349290439814
 20
532.4639103621123
 30
0.0
 10
744.3433637594266
 20
532.5758493564243
 30
0.0
 10
743.6526694233123
 20
532.7014853704435
 30
0.0
 10
743.192401759709
 20
532.788331028254
 30
0.0
 10
742.9623231413731
 20
532.8333074641233
 30
0.0
 10
741.8141761648723
 20
533.0656605996083
 30
0.0
 10
740.90151909512
 20
533.2756457872599
 30
0.0
 10
739.0883952716293
 20
533.7460741220079
 30
0.0
 10
738.1879262604442
 20
534.0065069558768
 30
0.0
 10
736.3999321693724
 20
534.5813064512159
 30
0.0
 10
735.5124031366316
 20
534.8956552651425
 30
0.0
 10
733.7514194988647
 20
535.583406044805
 30
0.0
 10
732.8779579032979
 20
535.9567765633532
 30
0.0
 10
731.5795702179782
 20
536.5667273568677
 30
0.0
 10
731.0410406543494
 20
536.8312947659437
 30
0.0
 10
730.505813210698
 20
537.1098751324575
 30
0.0
 10
730.2919919141164
 20
537.2224529398246
 30
0.0
 10
730.1851747340888
 20
537.2793366415178
 30
0.0
 10
729.8655670736435
 20
537.4515059968942
 30
0.0
 10
729.653559883606
 20
537.5683390897411
 30
0.0
 10
729.0208191572218
 20
537.9251734658397
 30
0.0
 10
728.603362850887
 20
538.1715026685832
 30
0.0
 10
727.7777353536214
 20
538.6821277660027
 30
0.0
 10
727.3695631455192
 20
538.9464216200065
 30
0.0
 10
726.5631733224499
 20
539.4943140618597
 30
0.0
 10
726.1649542631013
 20
539.777909750767
 30
0.0
 10
725.3793040257857
 20
540.3660702573176
 30
0.0
 10
724.9918707410982
 20
540.6706308439001
 30
0.0
 10
724.2288413674024
 20
541.3028167253066
 30
0.0
 10
723.8532421023403
 20
541.6304356361107
 30
0.0
 10
723.2997281579874
 20
542.141174242489
 30
0.0
 10
723.0254462977622
 20
542.4013788553929
 30
0.0
 10
722.7100521908399
 20
542.7139521966983
 30
0.0
 10
722.5759019823162
 20
542.8499063826705
 30
0.0
 10
722.4866986538258
 20
542.9409931907497
 30
0.0
 10
722.4421950119915
 20
542.9867797187646
 30
0.0
 10
722.0432600450989
 20
543.4003542370566
 30
0.0
 10
721.6995497437766
 20
543.7790269499454
 30
0.0
 10
721.0358673095963
 20
544.5604891219884
 30
0.0
 10
720.7158890413189
 20
544.9632721745257
 30
0.0
 10
720.1021770320164
 20
545.7955566986597
 30
0.0
 10
719.8084335947939
 20
546.225048035443
 30
0.0
 10
719.250501743147
 20
547.1141870628418
 30
0.0
 10
718.9862972096972
 20
547.5738178853047
 30
0.0
 10
718.6773187448092
 20
548.1701198903298
 30
0.0
 10
718.6165574389241
 20
548.2905450077683
 30
0.0
 10
718.4976653696514
 20
548.5328153104135
 30
0.0
 10
718.3813086973457
 20
548.7766818787234
 30
0.0
 10
718.2423607369711
 20
549.0856083758686
 30
0.0
 10
718.1619933270196
 20
549.272856040715
 30
0.0
 10
718.1090912319903
 20
549.3981141396256
 30
0.0
 10
718.0829661451451
 20
549.4609861504977
 30
0.0
 10
717.85121119587
 20
550.0280768166232
 30
0.0
 10
717.6695499316386
 20
550.5399103708672
 30
0.0
 10
717.3572942135422
 20
551.5798730327132
 30
0.0
 10
717.2266920837733
 20
552.107999573881
 30
0.0
 10
717.0198834092018
 20
553.1816481558881
 30
0.0
 10
716.943664707183
 20
553.7271661296031
 30
0.0
 10
716.8969321592548
 20
554.2821370965999
 30
0.0
  0
SPLINE
  5
189
330
1F
100
AcDbEntity
  8
1
  6
Continuous
 62
    30
370
    18
100
AcDbSpline
210
0.0
220
0.0
230
1.0
 70
     8
 71
     3
 72
    80
 73
    76
 74
     0
 42
0.000000001
 43
0.0000000001
 40
0.0
 40
0.0
 40
0.0
 40
0.0
 40
0.0009765625
 40
0.0009765625
 40
0.001953125
 40
0.0039062499999998
 40
0.0078124999999998
 40
0.0156249999999998
 40
0.0312500000000004
 40
0.0312500000000004
 40
0.0625000000000019
 40
0.0625000000000019
 40
0.1250000000000051
 40
0.1250000000000051
 40
0.1875000000000083
 40
0.1875000000000083
 40
0.21875000000001
 40
0.2343750000000108
 40
0.2343750000000108
 40
0.2421875000000111
 40
0.2421875000000111
 40
0.2500000000000115
 40
0.2500000000000115
 40
0.3125000000000122
 40
0.3125000000000122
 40
0.3750000000000131
 40
0.3750000000000131
 40
0.437500000000014
 40
0.437500000000014
 40
0.4687500000000144
 40
0.4687500000000144
 40
0.500000000000015
 40
0.500000000000015
 40
0.5312500000000155
 40
0.5390625000000157
 40
0.5468750000000159
 40
0.5468750000000159
 40
0.562500000000016
 40
0.562500000000016
 40
0.5937500000000163
 40
0.5937500000000163
 40
0.6250000000000168
 40
0.6250000000000168
 40
0.6562500000000171
 40
0.6562500000000171
 40
0.6875000000000175
 40
0.6875000000000175
 40
0.718750000000018
 40
0.718750000000018
 40
0.734375000000018
 40
0.7421875000000177
 40
0.7421875000000177
 40
0.7500000000000172
 40
0.7500000000000172
 40
0.7812500000000165
 40
0.7812500000000165
 40
0.8125000000000159
 40
0.8125000000000159
 40
0.8437500000000152
 40
0.8437500000000152
 40
0.8750000000000145
 40
0.8750000000000145
 40
0.8789062500000145
 40
0.8789062500000145
 40
0.8828125000000144
 40
0.8906250000000129
 40
0.8984375000000113
 40
0.8984375000000113
 40
0.9062500000000098
 40
0.9062500000000098
 40
0.9375000000000066
 40
0.9375000000000066
 40
0.9687500000000032
 40
0.9687500000000032
 40
1.0
 40
1.0
 40
1.0
 40
1.0
 10
753.8428385630771
 20
531.7821370965999
 30
0.0
 10
753.8524858212106
 20
531.7821370965999
 30
0.0
 10
753.8621259772553
 20
531.7821427745414
 30
0.0
 10
753.8814945200189
 20
531.7821656782036
 30
0.0
 10
753.910546524914
 20
531.7822172586192
 30
0.0
 10
753.9783288766945
 20
531.7824581680029
 30
0.0
 10
754.1138709820796
 20
531.783422059049
 30
0.0
 10
754.3848651184247
 20
531.7872770520329
 30
0.0
 10
754.6169924655371
 20
531.7938818013197
 30
0.0
 10
755.0810453528345
 20
531.8114875214079
 30
0.0
 10
755.3901449403118
 20
531.8290846547231
 30
0.0
 10
756.3166551725633
 20
531.8994802605735
 30
0.0
 10
756.9332783246325
 20
531.969855610023
 30
0.0
 10
758.164496130644
 20
532.158266659395
 30
0.0
 10
758.7790907134994
 20
532.276298545523
 30
0.0
 10
759.6994908819978
 20
532.4903561402798
 30
0.0
 10
760.159317670534
 20
532.6066486672278
 30
0.0
 10
760.618586756393
 20
532.7371866898565
 30
0.0
 10
760.8481283603867
 20
532.804865573603
 30
0.0
 10
760.924642235789
 20
532.8278315671173
 30
0.0
 10
761.0775545866516
 20
532.8745469774229
 30
0.0
 10
761.1539475503859
 20
532.8982945065625
 30
0.0
 10
761.8409139543529
 20
533.1155456418288
 30
0.0
 10
762.4475025183888
 20
533.3336656380201
 30
0.0
 10
763.6523338389335
 20
533.822253158742
 30
0.0
 10
764.2505779689017
 20
534.0927096255256
 30
0.0
 10
765.438281546939
 20
534.6896052153771
 30
0.0
 10
766.0277434758395
 20
535.0160250207946
 30
0.0
 10
766.9048336103649
 20
535.5516850266843
 30
0.0
 10
767.196011044946
 20
535.7379255264049
 30
0.0
 10
767.7758768280369
 20
536.1266840111781
 30
0.0
 10
768.0645653630476
 20
536.3292005608704
 30
0.0
 10
768.6393100289321
 20
536.7516065935135
 30
0.0
 10
768.9968805144617
 20
537.0264659683488
 30
0.0
 10
769.4233317973806
 20
537.3738415601356
 30
0.0
 10
769.5651242917086
 20
537.4920258861882
 30
0.0
 10
769.777171649211
 20
537.6708174112689
 30
0.0
 10
769.9178037509223
 20
537.7921313810828
 30
0.0
 10
770.3374452970492
 20
538.1626112393166
 30
0.0
 10
770.614202405635
 20
538.4183075603
 30
0.0
 10
771.1613552618686
 20
538.9482387988968
 30
0.0
 10
771.4317516858468
 20
539.2224715658771
 30
0.0
 10
771.9657451897926
 20
539.7908573324389
 30
0.0
 10
772.2293432335479
 20
540.0850072648582
 30
0.0
 10
772.7491923808323
 20
540.6949515231427
 30
0.0
 10
773.005444895067
 20
541.0107413530773
 30
0.0
 10
773.5099108701215
 20
541.6661432453565
 30
0.0
 10
773.7581264659841
 20
542.0057484902431
 30
0.0
 10
774.1237541493294
 20
542.5351209128182
 30
0.0
 10
774.3048914690755
 20
542.8048064533946
 30
0.0
 10
774.4833605522136
 20
543.0824745248923
 30
0.0
 10
774.6017276195923
 20
543.2694215794507
 30
0.0
 10
774.660640760351
 20
543.3638723506884
 30
0.0
 10
774.9526695486785
 20
543.8392968386914
 30
0.0
 10
775.178829024262
 20
544.2307505321858
 30
0.0
 10
775.6149826613658
 20
545.0378430570408
 30
0.0
 10
775.8249806885955
 20
545.4534757007024
 30
0.0
 10
776.227208752765
 20
546.3114575177294
 30
0.0
 10
776.4194448775238
 20
546.7537969255633
 30
0.0
 10
776.7840317394509
 20
547.6685388509882
 30
0.0
 10
776.9563925465422
 20
548.1409251721548
 30
0.0
 10
777.1375006405646
 20
548.6918228472299
 30
0.0
 10
777.157450453595
 20
548.7533215438256
 30
0.0
 10
777.1969134489756
 20
548.8766406610448
 30
0.0
 10
777.2554789002902
 20
549.0621795212558
 30
0.0
 10
777.3499099273814
 20
549.3742430043012
 30
0.0
 10
777.4219896890772
 20
549.6269858198665
 30
0.0
 10
777.4922964282503
 20
549.8813130072843
 30
0.0
 10
777.5265743001071
 20
550.0093113478804
 30
0.0
 10
777.6933066963013
 20
550.6529212373202
 30
0.0
 10
777.8105294461061
 20
551.1743962567666
 30
0.0
 10
778.0115734142867
 20
552.2310287984602
 30
0.0
 10
778.0953980280391
 20
552.7661847066377
 30
0.0
 10
778.2280339663752
 20
553.8509219779874
 30
0.0
 10
778.2768507500656
 20
554.4005007617639
 30
0.0
 10
778.307019830473
 20
554.9578127722755
 30
0.0
  0
SPLINE
  5
18A
330
1F
100
AcDbEntity
  8
1
  6
Continuous
 62
    30
370
    13
100
AcDbSpline
210
0.0
220
0.0
230
1.0
 70
     8
 71
     3
 72
    78
 73
    74
 74
     0
 42
0.000000001
 43
0.0000000001
 40
0.0
 40
0.0
 40
0.0
 40
0.0
 40
0.0312500000000028
 40
0.0312500000000028
 40
0.0625000000000056
 40
0.0625000000000056
 40
0.0937500000000084
 40
0.0937500000000084
 40
0.0976562500000082
 40
0.0976562500000082
 40
0.1015625000000081
 40
0.1093750000000091
 40
0.1171875000000102
 40
0.1171875000000102
 40
0.1250000000000112
 40
0.1250000000000112
 40
0.1562500000000129
 40
0.1562500000000129
 40
0.1875000000000146
 40
0.1875000000000146
 40
0.2187500000000163
 40
0.2187500000000163
 40
0.250000000000018
 40
0.250000000000018
 40
0.2539062500000182
 40
0.2539062500000182
 40
0.2578125000000184
 40
0.2656250000000183
 40
0.281250000000018
 40
0.281250000000018
 40
0.3125000000000177
 40
0.3125000000000177
 40
0.3437500000000173
 40
0.3437500000000173
 40
0.3750000000000169
 40
0.3750000000000169
 40
0.4062500000000165
 40
0.4062500000000165
 40
0.4375000000000162
 40
0.4375000000000162
 40
0.453125000000016
 40
0.453125000000016
 40
0.4609375000000159
 40
0.4609375000000159
 40
0.4687500000000158
 40
0.5000000000000149
 40
0.5000000000000149
 40
0.5625000000000133
 40
0.5625000000000133
 40
0.6250000000000118
 40
0.6250000000000118
 40
0.6875000000000103
 40
0.6875000000000103
 40
0.7500000000000088
 40
0.7500000000000088
 40
0.7656250000000082
 40
0.7656250000000082
 40
0.7812500000000075
 40
0.8125000000000064
 40
0.8125000000000064
 40
0.8750000000000041
 40
0.8750000000000041
 40
0.9375000000000019
 40
0.9375000000000019
 40
0.9687500000000008
 40
0.9687500000000008
 40
0.9843750000000002
 40
0.9921875000000002
 40
0.9960937500000001
 40
0.998046875
 40
0.9990234375
 40
0.9990234375
 40
1.0
 40
1.0
 40
1.0
 40
1.0
 10
790.7887449668995
 20
554.2821370965999
 30
0.0
 10
790.7420124189713
 20
553.7271661296031
 30
0.0
 10
790.6657937169524
 20
553.1816481558881
 30
0.0
 10
790.458985042381
 20
552.107999573881
 30
0.0
 10
790.328382912612
 20
551.5798730327133
 30
0.0
 10
790.0161271945157
 20
550.5399103708672
 30
0.0
 10
789.8344659302843
 20
550.0280768166233
 30
0.0
 10
789.6027109810092
 20
549.4609861504978
 30
0.0
 10
789.5765858941639
 20
549.3981141396256
 30
0.0
 10
789.5236837991347
 20
549.272856040715
 30
0.0
 10
789.4433163891831
 20
549.0856083758686
 30
0.0
 10
789.304368443368
 20
548.776681869269
 30
0.0
 10
789.1880117565029
 20
548.5328153104135
 30
0.0
 10
789.0691196872301
 20
548.2905450077682
 30
0.0
 10
789.008358381345
 20
548.1701198903298
 30
0.0
 10
788.699379916457
 20
547.5738178853048
 30
0.0
 10
788.4351753830072
 20
547.1141870628418
 30
0.0
 10
787.8772435313604
 20
546.225048035443
 30
0.0
 10
787.5835000941379
 20
545.7955566986597
 30
0.0
 10
786.9697880848354
 20
544.9632721745257
 30
0.0
 10
786.649809816558
 20
544.5604891219884
 30
0.0
 10
785.9861273823776
 20
543.7790269499453
 30
0.0
 10
785.6424170810553
 20
543.4003542370567
 30
0.0
 10
785.2434821141627
 20
542.9867797187646
 30
0.0
 10
785.1989784723285
 20
542.9409931907497
 30
0.0
 10
785.1097751438381
 20
542.8499063826704
 30
0.0
 10
784.9756249353144
 20
542.7139521966983
 30
0.0
 10
784.6602308283921
 20
542.4013788553929
 30
0.0
 10
784.3859489681668
 20
542.141174242489
 30
0.0
 10
783.8324350238139
 20
541.6304356361107
 30
0.0
 10
783.4568357587518
 20
541.3028167253066
 30
0.0
 10
782.6938063850561
 20
540.6706308439001
 30
0.0
 10
782.3063731003685
 20
540.3660702573176
 30
0.0
 10
781.5207228630529
 20
539.777909750767
 30
0.0
 10
781.1225038037044
 20
539.4943140618597
 30
0.0
 10
780.316113980635
 20
538.9464216200065
 30
0.0
 10
779.9079417725328
 20
538.6821277660027
 30
0.0
 10
779.0823142752672
 20
538.1715026685832
 30
0.0
 10
778.6648579689324
 20
537.9251734658397
 30
0.0
 10
778.0321172425482
 20
537.5683390897412
 30
0.0
 10
777.8201100525107
 20
537.4515059968942
 30
0.0
 10
777.5005023920654
 20
537.2793366415178
 30
0.0
 10
777.3936852120379
 20
537.2224529398246
 30
0.0
 10
777.1798639154563
 20
537.1098751324575
 30
0.0
 10
776.6446364718048
 20
536.8312947659437
 30
0.0
 10
776.1061069081759
 20
536.5667273568677
 30
0.0
 10
774.8077192228563
 20
535.9567765633533
 30
0.0
 10
773.9342576272894
 20
535.583406044805
 30
0.0
 10
772.1732739895226
 20
534.8956552651425
 30
0.0
 10
771.2857449567819
 20
534.581306451216
 30
0.0
 10
769.4977508657099
 20
534.0065069558768
 30
0.0
 10
768.5972818545249
 20
533.7460741220079
 30
0.0
 10
766.7841580310343
 20
533.2756457872599
 30
0.0
 10
765.871500961282
 20
533.0656605996083
 30
0.0
 10
764.7233539847812
 20
532.8333074641234
 30
0.0
 10
764.4932753664452
 20
532.788331028254
 30
0.0
 10
764.0330077028418
 20
532.7014853704435
 30
0.0
 10
763.3423133667276
 20
532.5758493564243
 30
0.0
 10
762.6507480821728
 20
532.4639103621123
 30
0.0
 10
761.2664710885454
 20
532.2578567357482
 30
0.0
 10
760.3420928602075
 20
532.1442253914983
 30
0.0
 10
758.4903191739984
 20
531.9628400721401
 30
0.0
 10
757.5629236253227
 20
531.8950896009562
 30
0.0
 10
756.169555290982
 20
531.8273247202326
 30
0.0
 10
755.7047196106543
 20
531.8103862792407
 30
0.0
 10
755.0068916060716
 20
531.7934404740788
 30
0.0
 10
754.6578339445583
 20
531.7870836105733
 30
0.0
 10
754.2503470702005
 20
531.783373583706
 30
0.0
 10
754.0465401762783
 20
531.7824460084472
 30
0.0
 10
753.9446208363803
 20
531.7822142006037
 30
0.0
 10
753.9009377104782
 20
531.7821645785472
 30
0.0
 10
753.8718148686735
 20
531.782142548646
 30
0.0
 10
753.8573351804126
 20
531.7821370965999
 30
0.0
 10
753.8428385630771
 20
531.7821370965999
 30
0.0
  0
SPLINE
  5
18B
330
1F
100
AcDbEntity
  8
1
  6
Continuous
 62
    30
370
    13
100
AcDbSpline
210
0.0
220
0.0
230
1.0
 70
     8
 71
     3
 72
    43
 73
    39
 74
     0
 42
0.000000001
 43
0.0000000001
 40
0.0
 40
0.0
 40
0.0
 40
0.0
 40
0.0625000000000096
 40
0.0625000000000096
 40
0.1250000000000192
 40
0.1250000000000192
 40
0.2500000000000391
 40
0.2500000000000391
 40
0.2812500000000433
 40
0.296875000000045
 40
0.3046875000000457
 40
0.3046875000000457
 40
0.3125000000000465
 40
0.3125000000000465
 40
0.3750000000000435
 40
0.3750000000000435
 40
0.4375000000000406
 40
0.4375000000000406
 40
0.5000000000000376
 40
0.5000000000000376
 40
0.5625000000000346
 40
0.5625000000000346
 40
0.6250000000000318
 40
0.6250000000000318
 40
0.632812500000031
 40
0.632812500000031
 40
0.6406250000000302
 40
0.6406250000000302
 40
0.6562500000000283
 40
0.6875000000000254
 40
0.6875000000000254
 40
0.7500000000000203
 40
0.7500000000000203
 40
0.8125000000000151
 40
0.8125000000000151
 40
0.87500000000001
 40
0.87500000000001
 40
1.0
 40
1.0
 40
1.0
 40
1.0
 10
684.2542062120093
 20
541.1972202233696
 30
0.0
 10
684.4849837494298
 20
540.7610407476906
 30
0.0
 10
684.7217342209773
 20
540.3412530232749
 30
0.0
 10
685.2092625610143
 20
539.5335258237442
 30
0.0
 10
685.4600405546021
 20
539.1455888992164
 30
0.0
 10
686.2364747952371
 20
538.0284995851513
 30
0.0
 10
686.7862540318733
 20
537.3460140962821
 30
0.0
 10
687.5235324442305
 20
536.5683180326807
 30
0.0
 10
687.7484674118515
 20
536.3406718038709
 30
0.0
 10
688.0177709745748
 20
536.0849367361322
 30
0.0
 10
688.1346943059857
 20
535.9774416586374
 30
0.0
 10
688.2129818955375
 20
535.9062455987518
 30
0.0
 10
688.2523124947899
 20
535.8708658705357
 30
0.0
 10
688.6072806431382
 20
535.555033185003
 30
0.0
 10
688.9302778249352
 20
535.2922698663419
 30
0.0
 10
689.5919759956184
 20
534.8002294885684
 30
0.0
 10
689.9306758847055
 20
534.5709544419192
 30
0.0
 10
690.6243850351178
 20
534.1437088596184
 30
0.0
 10
690.979393388301
 20
533.945739808938
 30
0.0
 10
691.7061992918613
 20
533.5791530460774
 30
0.0
 10
692.0779960906033
 20
533.4105364704636
 30
0.0
 10
692.8387577376121
 20
533.1008913652839
 30
0.0
 10
693.2277219636535
 20
532.9598637365451
 30
0.0
 10
693.6751315885493
 20
532.8158239186156
 30
0.0
 10
693.7249801807059
 20
532.8000225909187
 30
0.0
 10
693.8249506990401
 20
532.7688231485103
 30
0.0
 10
693.875085752953
 20
532.7534211676312
 30
0.0
 10
694.0257258612621
 20
532.7078681620812
 30
0.0
 10
694.328073091984
 20
532.6193328556561
 30
0.0
 10
694.633616276136
 20
532.5383132558719
 30
0.0
 10
695.2489465525745
 20
532.3858057842767
 30
0.0
 10
695.6648260991828
 20
532.2968331344862
 30
0.0
 10
696.5077859470517
 20
532.1419419746013
 30
0.0
 10
696.9348658331414
 20
532.0760254481933
 30
0.0
 10
697.8000860897081
 20
531.9652028314543
 30
0.0
 10
698.238226165362
 20
531.9202983153571
 30
0.0
 10
699.5690107222291
 20
531.8143982191857
 30
0.0
 10
700.478017859533
 20
531.7821370965999
 30
0.0
 10
701.4082305531955
 20
531.7821370965999
 30
0.0
  0
SPLINE
  5
18C
330
1F
100
AcDbEntity
  8
1
  6
Continuous
 62
    30
370
    13
100
AcDbSpline
210
0.0
220
0.0
230
1.0
 70
     8
 71
     3
 72
    45
 73
    41
 74
     0
 42
0.000000001
 43
0.0000000001
 40
0.0
 40
0.0
 40
0.0
 40
0.0
 40
0.1250000000000108
 40
0.1250000000000108
 40
0.1875000000000161
 40
0.1875000000000161
 40
0.2500000000000215
 40
0.2500000000000215
 40
0.3125000000000268
 40
0.3125000000000268
 40
0.3750000000000321
 40
0.3750000000000321
 40
0.4062500000000346
 40
0.4062500000000346
 40
0.4140625000000349
 40
0.4140625000000349
 40
0.4218750000000351
 40
0.4375000000000343
 40
0.5000000000000322
 40
0.5000000000000322
 40
0.5625000000000303
 40
0.5625000000000303
 40
0.6250000000000282
 40
0.6250000000000282
 40
0.6875000000000262
 40
0.6875000000000262
 40
0.7500000000000241
 40
0.7500000000000241
 40
0.7812500000000235
 40
0.7812500000000235
 40
0.789062500000023
 40
0.789062500000023
 40
0.7968750000000224
 40
0.7968750000000224
 40
0.8125000000000211
 40
0.8750000000000141
 40
0.8750000000000141
 40
0.937500000000007
 40
0.937500000000007
 40
1.0
 40
1.0
 40
1.0
 40
1.0
 10
806.2774465729586
 20
531.7821370965999
 30
0.0
 10
807.2077148452374
 20
531.7821370965999
 30
0.0
 10
808.1161634517658
 20
531.8144082069267
 30
0.0
 10
809.4452173061611
 20
531.9200956318386
 30
0.0
 10
809.8826317381584
 20
531.9648901947825
 30
0.0
 10
810.7461087588548
 20
532.0753572979604
 30
0.0
 10
811.1721710593141
 20
532.1410283947708
 30
0.0
 10
812.0128097430877
 20
532.2952203332042
 30
0.0
 10
812.427385724755
 20
532.3837393689652
 30
0.0
 10
813.244939051194
 20
532.5858742801706
 30
0.0
 10
813.6479158341922
 20
532.6994878578316
 30
0.0
 10
814.2436241945381
 20
532.8906684191782
 30
0.0
 10
814.440734509475
 20
532.9578581477887
 30
0.0
 10
814.6852956106379
 20
533.0463996579589
 30
0.0
 10
814.7341299457202
 20
533.0643409235092
 30
0.0
 10
814.831470209943
 20
533.1006299542266
 30
0.0
 10
814.9770340412623
 20
533.1556894894136
 30
0.0
 10
815.505872015587
 20
533.3645035418826
 30
0.0
 10
815.9718860037085
 20
533.5755815334908
 30
0.0
 10
816.6991749057421
 20
533.9419017501473
 30
0.0
 10
817.053652019866
 20
534.1393588277743
 30
0.0
 10
817.7449108765403
 20
534.5643935529705
 30
0.0
 10
818.0816919311744
 20
534.7919702324652
 30
0.0
 10
818.7383110793929
 20
535.2789213036455
 30
0.0
 10
819.0581483824755
 20
535.5382943891344
 30
0.0
 10
819.6817688670174
 20
536.0907010233694
 30
0.0
 10
819.9855511391645
 20
536.3837327444635
 30
0.0
 10
820.4299719781025
 20
536.8500965926288
 30
0.0
 10
820.576238179531
 20
537.0100225662779
 30
0.0
 10
820.7568214975506
 20
537.2156999591094
 30
0.0
 10
820.7928257200275
 20
537.2571239829292
 30
0.0
 10
820.864611736196
 20
537.3405538409596
 30
0.0
 10
820.9003806590212
 20
537.3825451078857
 30
0.0
 10
821.0071712793836
 20
537.5091737989381
 30
0.0
 10
821.3599861045864
 20
537.9359691211059
 30
0.0
 10
821.6974732713062
 20
538.3862736112928
 30
0.0
 10
822.2200910099137
 20
539.1370517713807
 30
0.0
 10
822.4727191055989
 20
539.52758487312
 30
0.0
 10
822.9628660166635
 20
540.3392890029634
 30
0.0
 10
823.2003850236314
 20
540.7604579470767
 30
0.0
 10
823.4314709141449
 20
541.1972202233696
 30
0.0
  0
SPLINE
  5
18D
330
1F
100
AcDbEntity
  8
1
  6
Continuous
 62
    30
370
    13
100
AcDbSpline
210
0.0
220
0.0
230
1.0
 70
     8
 71
     3
 72
    46
 73
    42
 74
     0
 42
0.000000001
 43
0.0000000001
 40
0.0
 40
0.0
 40
0.0
 40
0.0
 40
0.0624999999999952
 40
0.0624999999999952
 40
0.1249999999999903
 40
0.1249999999999903
 40
0.1874999999999855
 40
0.1874999999999855
 40
0.2031249999999844
 40
0.2109374999999843
 40
0.2109374999999843
 40
0.2187499999999842
 40
0.2187499999999842
 40
0.2499999999999843
 40
0.2499999999999843
 40
0.3124999999999848
 40
0.3124999999999848
 40
0.3749999999999852
 40
0.3749999999999852
 40
0.4374999999999857
 40
0.4374999999999857
 40
0.4999999999999862
 40
0.4999999999999862
 40
0.5624999999999867
 40
0.5624999999999867
 40
0.5937499999999868
 40
0.6015624999999867
 40
0.6015624999999867
 40
0.6093749999999867
 40
0.6093749999999867
 40
0.6249999999999872
 40
0.6249999999999872
 40
0.6874999999999896
 40
0.6874999999999896
 40
0.7499999999999918
 40
0.7499999999999918
 40
0.8124999999999941
 40
0.8124999999999941
 40
0.8749999999999963
 40
0.8749999999999963
 40
1.0
 40
1.0
 40
1.0
 40
1.0
 10
835.4295109746738
 20
531.8839745231992
 30
0.0
 10
835.1822978183708
 20
531.2175759165098
 30
0.0
 10
834.9278301756649
 20
530.5765071599659
 30
0.0
 10
834.4017707009361
 20
529.3424541681669
 30
0.0
 10
834.1301798391642
 20
528.7494757164561
 30
0.0
 10
833.5672269248076
 20
527.6097129680786
 30
0.0
 10
833.2758659176538
 20
527.0629325254687
 30
0.0
 10
832.8976134598474
 20
526.4074758625723
 30
0.0
 10
832.7830835824062
 20
526.2129419999242
 30
0.0
 10
832.6669238273576
 20
526.0215437070281
 30
0.0
 10
832.5891163408116
 20
525.8946397039849
 30
0.0
 10
832.5500166623923
 20
525.8315161584306
 30
0.0
 10
832.3538849269379
 20
525.5181054556268
 30
0.0
 10
832.1947647958262
 20
525.2741247351391
 30
0.0
 10
831.7104264625292
 20
524.5616865874612
 30
0.0
 10
831.3782269826337
 20
524.1127117752403
 30
0.0
 10
830.6935290538934
 20
523.2633732702113
 30
0.0
 10
830.3410318609602
 20
522.8630149269441
 30
0.0
 10
829.6141488220155
 20
522.1081878978962
 30
0.0
 10
829.2397640302894
 20
521.7537229906259
 30
0.0
 10
828.4675734842829
 20
521.0884472174862
 30
0.0
 10
828.0697686571921
 20
520.7776390883356
 30
0.0
 10
827.2492336507115
 20
520.197831224119
 30
0.0
 10
826.8265043239301
 20
519.9288335165279
 30
0.0
 10
826.1725890880447
 20
519.5555487749818
 30
0.0
 10
825.8959948955198
 20
519.4063104890464
 30
0.0
 10
825.6140904214449
 20
519.2648142242992
 30
0.0
 10
825.5009008051122
 20
519.2088327837786
 30
0.0
 10
825.4441067959452
 20
519.1811581530401
 30
0.0
 10
825.2733197064152
 20
519.0991688166023
 30
0.0
 10
825.1588480528272
 20
519.0458520564305
 30
0.0
 10
824.583400205586
 20
518.7858507626929
 30
0.0
 10
824.113153516251
 20
518.5988943096656
 30
0.0
 10
823.1523615156368
 20
518.2640319441291
 30
0.0
 10
822.661816903782
 20
518.1161293750588
 30
0.0
 10
821.6599412230288
 20
517.8567805872883
 30
0.0
 10
821.1486107167982
 20
517.7453369225038
 30
0.0
 10
820.1046888765156
 20
517.5566600193569
 30
0.0
 10
819.572098013946
 20
517.4794287850539
 30
0.0
 10
817.9417198031657
 20
517.2961029644881
 30
0.0
 10
816.8113414838563
 20
517.2382896593351
 30
0.0
 10
815.6354839640818
 20
517.238289659335
 30
0.0
  0
SPLINE
  5
18E
330
1F
100
AcDbEntity
  8
1
  6
Continuous
 62
    30
370
    13
100
AcDbSpline
210
0.0
220
0.0
230
1.0
 70
     8
 71
     3
 72
    45
 73
    41
 74
     0
 42
0.000000001
 43
0.0000000001
 40
0.0
 40
0.0
 40
0.0
 40
0.0
 40
0.1249999999999972
 40
0.1249999999999972
 40
0.1874999999999964
 40
0.1874999999999964
 40
0.2499999999999955
 40
0.2499999999999955
 40
0.3124999999999946
 40
0.3124999999999946
 40
0.3437499999999942
 40
0.3437499999999942
 40
0.3515624999999939
 40
0.3515624999999939
 40
0.3593749999999936
 40
0.3749999999999933
 40
0.4374999999999934
 40
0.4374999999999934
 40
0.4999999999999936
 40
0.4999999999999936
 40
0.5624999999999937
 40
0.5624999999999937
 40
0.6249999999999939
 40
0.6249999999999939
 40
0.656249999999994
 40
0.656249999999994
 40
0.6718749999999939
 40
0.679687499999994
 40
0.679687499999994
 40
0.6874999999999941
 40
0.6874999999999941
 40
0.7499999999999953
 40
0.7499999999999953
 40
0.8124999999999964
 40
0.8124999999999964
 40
0.8749999999999977
 40
0.8749999999999977
 40
0.9374999999999988
 40
0.9374999999999988
 40
1.0
 40
1.0
 40
1.0
 40
1.0
 10
692.0501931620723
 20
517.238289659335
 30
0.0
 10
690.8746155216111
 20
517.238289659335
 30
0.0
 10
689.7435998731995
 20
517.2960683307474
 30
0.0
 10
688.1111233175006
 20
517.4797424277942
 30
0.0
 10
687.5776423308356
 20
517.5571577488598
 30
0.0
 10
686.5315944431464
 20
517.7464338303934
 30
0.0
 10
686.0190280211771
 20
517.85829243092
 30
0.0
 10
685.0143679369666
 20
518.118814809492
 30
0.0
 10
684.5222748548758
 20
518.267475816941
 30
0.0
 10
683.7991466236417
 20
518.5201201487849
 30
0.0
 10
683.5606055975782
 20
518.6092802288542
 30
0.0
 10
683.2655187122566
 20
518.7271523132061
 30
0.0
 10
683.2066403867549
 20
518.7510542967522
 30
0.0
 10
683.0892684320221
 20
518.7994751444392
 30
0.0
 10
682.9138294208975
 20
518.8730137737214
 30
0.0
 10
682.2773204030634
 20
519.152686112765
 30
0.0
 10
681.7189359800793
 20
519.4376012034459
 30
0.0
 10
680.8501976786812
 20
519.9344078922361
 30
0.0
 10
680.4281677071701
 20
520.2032804253681
 30
0.0
 10
679.6075218596576
 20
520.783972060246
 30
0.0
 10
679.2089068700084
 20
521.0957883896198
 30
0.0
 10
678.4337953344728
 20
521.7647614461808
 30
0.0
 10
678.0572998243263
 20
522.1219143901699
 30
0.0
 10
677.5081274753265
 20
522.6938095243888
 30
0.0
 10
677.327664600813
 20
522.8904730092531
 30
0.0
 10
677.0607283652191
 20
523.1948287761883
 30
0.0
 10
676.9281996908765
 20
523.3493472720289
 30
0.0
 10
676.7970543511396
 20
523.5074399426805
 30
0.0
 10
676.7099286055702
 20
523.6136366864902
 30
0.0
 10
676.6665210164692
 20
523.6671327571064
 30
0.0
 10
676.2778332567543
 20
524.1514488737486
 30
0.0
 10
675.9452946690002
 20
524.6035696294817
 30
0.0
 10
675.3035882249976
 20
525.5520483486481
 30
0.0
 10
674.994421470445
 20
526.0484040166356
 30
0.0
 10
674.3969759632349
 20
527.0867431957347
 30
0.0
 10
674.1086982475285
 20
527.6287233469426
 30
0.0
 10
673.550583592182
 20
528.7601771534255
 30
0.0
 10
673.2807476738501
 20
529.3496458596563
 30
0.0
 10
672.7570742153157
 20
530.5785397636116
 30
0.0
 10
672.5032377382811
 20
531.2179575374581
 30
0.0
 10
672.2561661514804
 20
531.8839745231992
 30
0.0
  0
SPLINE
  5
18F
330
1F
100
AcDbEntity
  8
1
  6
Continuous
 62
    30
370
    18
100
AcDbSpline
210
0.0
220
0.0
230
1.0
 70
     8
 71
     3
 72
    35
 73
    31
 74
     0
 42
0.000000001
 43
0.0000000001
 40
0.0
 40
0.0
 40
0.0
 40
0.0
 40
0.0158261049516952
 40
0.0443635936624434
 40
0.0738189046901448
 40
0.1040116791820716
 40
0.1315217504816033
 40
0.1607145838461704
 40
0.1931831883281899
 40
0.2264082128887016
 40
0.26037037659712
 40
0.2950161909220097
 40
0.3302900229626612
 40
0.3661339672101005
 40
0.4024883413095516
 40
0.439292418922199
 40
0.4764853607185805
 40
0.5140072802460529
 40
0.5518003679872494
 40
0.5897445036152104
 40
0.6287918932460304
 40
0.6689002421408443
 40
0.7095437027917414
 40
0.7507457112015326
 40
0.792517784155219
 40
0.8348629677265699
 40
0.8777751083168885
 40
0.9212381884553689
 40
0.9652257568606555
 40
1.0
 40
1.0
 40
1.0
 40
1.0
 10
358.2604213715819
 20
228.714984929437
 30
0.0
 10
358.1469209328859
 20
228.6608468223593
 30
0.0
 10
357.8220728521095
 20
228.5063446734046
 30
0.0
 10
357.2438149563747
 20
228.2340724282078
 30
0.0
 10
356.520217137459
 20
227.8946469595576
 30
0.0
 10
355.7702347800885
 20
227.5434585063711
 30
0.0
 10
354.9888419431807
 20
227.176898499447
 30
0.0
 10
354.158639378845
 20
226.7850968984625
 30
0.0
 10
353.2477934614977
 20
226.3516503266356
 30
0.0
 10
352.2634161640462
 20
225.8779387308977
 30
0.0
 10
351.2321241877995
 20
225.3748946032528
 30
0.0
 10
350.1568789686893
 20
224.8420726387213
 30
0.0
 10
349.0412981848759
 20
224.2792672479623
 30
0.0
 10
347.8892467979674
 20
223.6863364729808
 30
0.0
 10
346.704826234725
 20
223.0632238886675
 30
0.0
 10
345.4923292076239
 20
222.4099616600385
 30
0.0
 10
344.2561773221674
 20
221.7266688429391
 30
0.0
 10
343.0009104636057
 20
221.0135576765911
 30
0.0
 10
341.7316812300362
 20
220.2713126501421
 30
0.0
 10
340.4428839820757
 20
219.4940799928013
 30
0.0
 10
339.1288775146364
 20
218.6764771136091
 30
0.0
 10
337.7871695828746
 20
217.8146394421771
 30
0.0
 10
336.4262438773026
 20
216.9116937267219
 30
0.0
 10
335.0538721652471
 20
215.9707985441192
 30
0.0
 10
333.6719908494493
 20
214.9912701258984
 30
0.0
 10
332.2829520215633
 20
213.9725601072251
 30
0.0
 10
330.8893433899869
 20
212.9144317298222
 30
0.0
 10
329.4946084922072
 20
211.816353189103
 30
0.0
 10
328.2032100010575
 20
210.7635315247535
 30
0.0
 10
327.3844455855466
 20
210.0686866072735
 30
0.0
 10
327.0252890853846
 20
209.7589083518265
 30
0.0
  0
SPLINE
  5
190
330
1F
100
AcDbEntity
  8
1
  6
Continuous
 62
    30
370
    18
100
AcDbSpline
210
0.0
220
0.0
230
1.0
 70
     8
 71
     3
 72
    35
 73
    31
 74
     0
 42
0.000000001
 43
0.0000000001
 40
0.0
 40
0.0
 40
0.0
 40
0.0
 40
0.0158261049520481
 40
0.0443635936627827
 40
0.0738189046905462
 40
0.104011679182398
 40
0.1315217504819429
 40
0.160714583846542
 40
0.1931831883285614
 40
0.2264082128890786
 40
0.2603703765974935
 40
0.2950161909223966
 40
0.3302900229630631
 40
0.3661339672105471
 40
0.4024883413099501
 40
0.4392924189225886
 40
0.4764853607189991
 40
0.514007280246467
 40
0.5518003679876865
 40
0.5897445036156269
 40
0.6287918932464907
 40
0.6689002421413032
 40
0.7095437027922058
 40
0.7507457112019988
 40
0.7925177841557082
 40
0.834862967727052
 40
0.8777751083173807
 40
0.9212381884558508
 40
0.9652257568611345
 40
1.0
 40
1.0
 40
1.0
 40
1.0
 10
402.0673682999005
 20
66.96694724868662
 30
0.0
 10
402.180868738599
 20
67.02108535576562
 30
0.0
 10
402.5057168193782
 20
67.17558750472169
 30
0.0
 10
403.0839747151163
 20
67.44785974991994
 30
0.0
 10
403.8075725340325
 20
67.78728521857033
 30
0.0
 10
404.5575548914033
 20
68.13847367175708
 30
0.0
 10
405.3389477283112
 20
68.50503367868117
 30
0.0
 10
406.1691502926475
 20
68.89683527966599
 30
0.0
 10
407.0799962099956
 20
69.33028185149337
 30
0.0
 10
408.0643735074473
 20
69.80399344723148
 30
0.0
 10
409.0956654836945
 20
70.30703757487665
 30
0.0
 10
410.1709107028051
 20
70.83985953940848
 30
0.0
 10
411.2864914866195
 20
71.40266493016817
 30
0.0
 10
412.4385428735285
 20
71.99559570514985
 30
0.0
 10
413.6229634367709
 20
72.6187082894634
 30
0.0
 10
414.8354604638718
 20
73.27197051809249
 30
0.0
 10
416.0716123493285
 20
73.95526333519219
 30
0.0
 10
417.3268792078908
 20
74.66837450154085
 30
0.0
 10
418.5961084414604
 20
75.41061952799002
 30
0.0
 10
419.8849056894214
 20
76.18785218533145
 30
0.0
 10
421.1989121568608
 20
77.0054550645241
 30
0.0
 10
422.5406200886233
 20
77.86729273595675
 30
0.0
 10
423.9015457941953
 20
78.77023845141221
 30
0.0
 10
425.2739175062509
 20
79.71113363401548
 30
0.0
 10
426.6557988220488
 20
80.69066205223668
 30
0.0
 10
428.0448376499349
 20
81.7093720709106
 30
0.0
 10
429.4384462815111
 20
82.76750044831368
 30
0.0
 10
430.8331811792905
 20
83.86557898903325
 30
0.0
 10
432.124579670435
 20
84.91840065337853
 30
0.0
 10
432.9433440859406
 20
85.61324557085467
 30
0.0
 10
433.3025005860976
 20
85.92302382629734
 30
0.0
  0
SPLINE
  5
191
330
1F
100
AcDbEntity
  8
1
  6
Continuous
 62
    30
370
    18
100
AcDbSpline
210
0.0
220
0.0
230
1.0
 70
     8
 71
     3
 72
    35
 73
    31
 74
     0
 42
0.000000001
 43
0.0000000001
 40
0.0
 40
0.0
 40
0.0
 40
0.0
 40
0.0251069857483987
 40
0.0698301011906491
 40
0.1140377551258374
 40
0.1577051330782587
 40
0.2008177215215071
 40
0.2433718193162342
 40
0.2853737502118087
 40
0.3268389504455995
 40
0.3677910164644219
 40
0.4082607743226232
 40
0.4482618917166225
 40
0.4859799538609424
 40
0.5242584600704223
 40
0.5619550449324514
 40
0.59910553502278
 40
0.6357482028155246
 40
0.6719288424569365
 40
0.707957628604603
 40
0.742406528164915
 40
0.7765905455881695
 40
0.8103552633319501
 40
0.8435427240521524
 40
0.8759948498924823
 40
0.9075414644000646
 40
0.9374301437058122
 40
0.9676122418304517
 40
0.9970309775723227
 40
1.0
 40
1.0
 40
1.0
 40
1.0
 10
433.3015047126687
 20
209.7576489885795
 30
0.0
 10
433.0429247186705
 20
209.9821588641976
 30
0.0
 10
432.3198792450006
 20
210.6017612972867
 30
0.0
 10
431.1176095093404
 20
211.5878947774441
 30
0.0
 10
429.7028939758973
 20
212.7108408161112
 30
0.0
 10
428.2874591279478
 20
213.7926255900147
 30
0.0
 10
426.8753216548958
 20
214.8344071356012
 30
0.0
 10
425.4689573138875
 20
215.8362527837547
 30
0.0
 10
424.0707860011392
 20
216.7987944665684
 30
0.0
 10
422.6828078151449
 20
217.7227439998151
 30
0.0
 10
421.306675362404
 20
218.6089706942782
 30
0.0
 10
419.9441491440756
 20
219.4582721399564
 30
0.0
 10
418.6170152775568
 20
220.2589533696922
 30
0.0
 10
417.3176895320153
 20
221.0193696057096
 30
0.0
 10
416.0491565130455
 20
221.7409946197405
 30
0.0
 10
414.7949877159157
 20
222.4350004246552
 30
0.0
 10
413.5696289746664
 20
223.0955842411334
 30
0.0
 10
412.374327979254
 20
223.7243158409367
 30
0.0
 10
411.2072133886348
 20
224.3243803191759
 30
0.0
 10
410.0822030401932
 20
224.8905197096149
 30
0.0
 10
409.0006574500374
 20
225.4246807249523
 30
0.0
 10
407.9662759868319
 20
225.9274823938638
 30
0.0
 10
406.9709868594618
 20
226.4048422187419
 30
0.0
 10
406.0217989104499
 20
226.8552547489497
 30
0.0
 10
405.1243599540496
 20
227.2777694016278
 30
0.0
 10
404.2933743035182
 20
227.6671918314307
 30
0.0
 10
403.5168884905987
 20
228.0308270557667
 30
0.0
 10
402.799706979104
 20
228.3679286889933
 30
0.0
 10
402.3150601920077
 20
228.5963559310839
 30
0.0
 10
402.0853837631958
 20
228.7061697652227
 30
0.0
 10
402.0644412730221
 20
228.7161912395096
 30
0.0
  0
SPLINE
  5
192
330
1F
100
AcDbEntity
  8
1
  6
Continuous
 62
    30
370
    18
100
AcDbSpline
210
0.0
220
0.0
230
1.0
 70
     8
 71
     3
 72
    35
 73
    31
 74
     0
 42
0.000000001
 43
0.0000000001
 40
0.0
 40
0.0
 40
0.0
 40
0.0
 40
0.0251069857483459
 40
0.0698301011906141
 40
0.114037755125792
 40
0.1577051330782211
 40
0.2008177215214745
 40
0.2433718193161903
 40
0.2853737502117645
 40
0.3268389504455539
 40
0.3677910164643844
 40
0.4082607743225817
 40
0.4482618917165587
 40
0.485979953860866
 40
0.5242584600702976
 40
0.5619550449323688
 40
0.5991055350227082
 40
0.6357482028154756
 40
0.6719288424568913
 40
0.7079576286045568
 40
0.7424065281648901
 40
0.7765905455881504
 40
0.810355263331837
 40
0.8435427240520795
 40
0.8759948498923988
 40
0.907541464399941
 40
0.9374301437056696
 40
0.9676122418304399
 40
0.9970309775722433
 40
1.0
 40
1.0
 40
1.0
 40
1.0
 10
327.0262849588133
 20
85.92428318954423
 30
0.0
 10
327.2848649528109
 20
85.69977331392667
 30
0.0
 10
328.0079104264805
 20
85.08017088083787
 30
0.0
 10
329.2101801621401
 20
84.0940374006808
 30
0.0
 10
330.6248956955834
 20
82.97109136201352
 30
0.0
 10
332.0403305435329
 20
81.88930658811005
 30
0.0
 10
333.4524680165849
 20
80.84752504252342
 30
0.0
 10
334.8588323575931
 20
79.84567939436998
 30
0.0
 10
336.2570036703413
 20
78.88313771155636
 30
0.0
 10
337.6449818563356
 20
77.9591881783096
 30
0.0
 10
339.0211143090766
 20
77.07296148384646
 30
0.0
 10
340.3836405274048
 20
76.22366003816833
 30
0.0
 10
341.7107743939231
 20
75.4229788084327
 30
0.0
 10
343.0101001394637
 20
74.66256257241588
 30
0.0
 10
344.2786331584333
 20
73.94093755838502
 30
0.0
 10
345.5328019555631
 20
73.24693175347021
 30
0.0
 10
346.7581606968134
 20
72.5863479369915
 30
0.0
 10
347.9534616922261
 20
71.95761633718791
 30
0.0
 10
349.1205762828458
 20
71.35755185894857
 30
0.0
 10
350.2455866312876
 20
70.79141246850944
 30
0.0
 10
351.3271322214437
 20
70.25725145317193
 30
0.0
 10
352.3615136846485
 20
69.75444978426064
 30
0.0
 10
353.3568028120181
 20
69.27708995938283
 30
0.0
 10
354.3059907610294
 20
68.82667742917513
 30
0.0
 10
355.2034297174299
 20
68.40416277649707
 30
0.0
 10
356.0344153679608
 20
68.0147403466943
 30
0.0
 10
356.8109011808809
 20
67.65110512235816
 30
0.0
 10
357.5280826923761
 20
67.3140034891311
 30
0.0
 10
358.0127294794737
 20
67.0855762470404
 30
0.0
 10
358.2424059082855
 20
66.97576241290118
 30
0.0
 10
358.2633483984599
 20
66.96574093861418
 30
0.0
  0
SPLINE
  5
193
330
1F
100
AcDbEntity
  8
1
  6
Continuous
 62
    30
370
    18
100
AcDbSpline
210
0.0
220
0.0
230
1.0
 70
     8
 71
     3
 72
    18
 73
    14
 74
     0
 42
0.000000001
 43
0.0000000001
 40
0.0
 40
0.0
 40
0.0
 40
0.0
 40
0.0465645146244165
 40
0.1082260964762532
 40
0.1760129812137902
 40
0.2526801039899303
 40
0.3434015022300959
 40
0.4558797840583529
 40
0.5963213054421848
 40
0.7096001514429596
 40
0.8157325477443039
 40
0.9276801106186658
 40
1.0
 40
1.0
 40
1.0
 40
1.0
 10
367.1745543049053
 20
231.841196302457
 30
0.0
 10
367.011586010937
 20
231.8161636562802
 30
0.0
 10
366.6404421328251
 20
231.7542144366083
 30
0.0
 10
366.069660523653
 20
231.6368321924506
 30
0.0
 10
365.4318608008134
 20
231.4852985957233
 30
0.0
 10
364.7369603189964
 20
231.2964002306397
 30
0.0
 10
363.9345221172827
 20
231.0511070071371
 30
0.0
 10
362.9704528805631
 20
230.7220383745637
 30
0.0
 10
361.9427378662083
 20
230.3331840501777
 30
0.0
 10
360.9128058672065
 20
229.9117719618748
 30
0.0
 10
359.9398470267844
 20
229.4904123579996
 30
0.0
 10
359.0644831644479
 20
229.0942737430746
 30
0.0
 10
358.4901557152843
 20
228.8226561944327
 30
0.0
 10
358.2622310786001
 20
228.7132744653078
 30
0.0
  0
SPLINE
  5
194
330
1F
100
AcDbEntity
  8
1
  6
Continuous
 62
    30
370
    18
100
AcDbSpline
210
0.0
220
0.0
230
1.0
 70
     8
 71
     3
 72
    18
 73
    14
 74
     0
 42
0.000000001
 43
0.0000000001
 40
0.0
 40
0.0
 40
0.0
 40
0.0
 40
0.046564514624958
 40
0.1082260964767268
 40
0.1760129812143371
 40
0.2526801039903909
 40
0.3434015022306101
 40
0.4558797840592247
 40
0.5963213054431932
 40
0.7096001514439937
 40
0.8157325477454138
 40
0.9276801106199521
 40
1.0
 40
1.0
 40
1.0
 40
1.0
 10
393.1532353665771
 20
63.84073587566664
 30
0.0
 10
393.3162036605473
 20
63.86576852184382
 30
0.0
 10
393.6873475386606
 20
63.92771774151596
 30
0.0
 10
394.2581291478344
 20
64.04509998567414
 30
0.0
 10
394.8959288706734
 20
64.19663358240139
 30
0.0
 10
395.5908293524905
 20
64.3855319474853
 30
0.0
 10
396.393267554205
 20
64.6308251709883
 30
0.0
 10
397.3573367909261
 20
64.95989380356244
 30
0.0
 10
398.3850518052823
 20
65.34874812794932
 30
0.0
 10
399.414983804285
 20
65.77016021625269
 30
0.0
 10
400.3879426447083
 20
66.19151982012872
 30
0.0
 10
401.2633065070416
 20
66.58765843505242
 30
0.0
 10
401.837633956202
 20
66.85927598369292
 30
0.0
 10
402.0655585928823
 20
66.96865771281591
 30
0.0
  0
SPLINE
  5
195
330
1F
100
AcDbEntity
  8
1
  6
Continuous
 62
    30
370
    18
100
AcDbSpline
210
0.0
220
0.0
230
1.0
 70
     8
 71
     3
 72
    19
 73
    15
 74
     0
 42
0.000000001
 43
0.0000000001
 40
0.0
 40
0.0
 40
0.0
 40
0.0
 40
0.0178403921305401
 40
0.1228616361455236
 40
0.229243806497708
 40
0.3395160479814016
 40
0.4561374752330987
 40
0.5836061337142663
 40
0.7047431160073937
 40
0.79137705082317
 40
0.864962573788198
 40
0.9311614599074369
 40
0.9916317551607853
 40
1.0
 40
1.0
 40
1.0
 40
1.0
 10
402.0645092160277
 20
228.7146185458909
 30
0.0
 10
402.007756416223
 20
228.7420616585613
 30
0.0
 10
401.6182684912054
 20
228.9295779020114
 30
0.0
 10
400.9168926178332
 20
229.2522011765137
 30
0.0
 10
399.9521270902426
 20
229.6824967628187
 30
0.0
 10
398.9814227891462
 20
230.0926703310697
 30
0.0
 10
397.9717419948781
 20
230.4935723699558
 30
0.0
 10
396.945329767832
 20
230.8679717248512
 30
0.0
 10
395.9963007864465
 20
231.1773578863493
 30
0.0
 10
395.1780433808043
 20
231.4115650293513
 30
0.0
 10
394.4917587022839
 20
231.5848847068098
 30
0.0
 10
393.8484471283404
 20
231.7219325582332
 30
0.0
 10
393.3986722447402
 20
231.80783301743
 30
0.0
 10
393.1526110733383
 20
231.8425204489402
 30
0.0
 10
393.1225364802415
 20
231.8466530890256
 30
0.0
  0
SPLINE
  5
196
330
1F
100
AcDbEntity
  8
1
  6
Continuous
 62
    30
370
    18
100
AcDbSpline
210
0.0
220
0.0
230
1.0
 70
     8
 71
     3
 72
    19
 73
    15
 74
     0
 42
0.000000001
 43
0.0000000001
 40
0.0
 40
0.0
 40
0.0
 40
0.0
 40
0.0178403921302449
 40
0.1228616361451362
 40
0.2292438064972319
 40
0.339516047980905
 40
0.4561374752326727
 40
0.5836061337132716
 40
0.7047431160064043
 40
0.791377050822573
 40
0.8649625737875632
 40
0.9311614599071263
 40
0.9916317551604814
 40
1.0
 40
1.0
 40
1.0
 40
1.0
 10
358.2632804554543
 20
66.96731363223276
 30
0.0
 10
358.320033255258
 20
66.93987051956283
 30
0.0
 10
358.7095211802745
 20
66.75235427611331
 30
0.0
 10
359.4108970536452
 20
66.42973100161159
 30
0.0
 10
360.3756625812354
 20
65.99943541530666
 30
0.0
 10
361.346366882332
 20
65.58926184705561
 30
0.0
 10
362.3560476765983
 20
65.1883598081699
 30
0.0
 10
363.3824599036436
 20
64.8139604532748
 30
0.0
 10
364.3314888850281
 20
64.50457429177672
 30
0.0
 10
365.1497462906711
 20
64.27036714877399
 30
0.0
 10
365.8360309691933
 20
64.09704747131504
 30
0.0
 10
366.4793425431375
 20
63.95999961989122
 30
0.0
 10
366.9291174267396
 20
63.87409916069407
 30
0.0
 10
367.1751785981426
 20
63.83941172918368
 30
0.0
 10
367.2052531912406
 20
63.83527908909818
 30
0.0
  0
SPLINE
  5
197
330
1F
100
AcDbEntity
  8
1
  6
Continuous
 62
    30
370
    13
100
AcDbSpline
210
0.0
220
0.0
230
1.0
 70
     8
 71
     3
 72
    35
 73
    31
 74
     0
 42
0.000000001
 43
0.0000000001
 40
0.0
 40
0.0
 40
0.0
 40
0.0
 40
0.1250000000000078
 40
0.1250000000000078
 40
0.2500000000000156
 40
0.2500000000000156
 40
0.3750000000000234
 40
0.3750000000000234
 40
0.4375000000000298
 40
0.4375000000000298
 40
0.4687500000000301
 40
0.4687500000000301
 40
0.484375000000033
 40
0.484375000000033
 40
0.500000000000036
 40
0.6250000000000328
 40
0.7500000000000295
 40
0.7500000000000295
 40
0.812500000000028
 40
0.812500000000028
 40
0.8437500000000271
 40
0.8437500000000271
 40
0.8593750000000268
 40
0.8593750000000268
 40
0.8750000000000264
 40
0.9062500000000198
 40
0.9062500000000198
 40
0.9375000000000132
 40
0.9375000000000132
 40
1.0
 40
1.0
 40
1.0
 40
1.0
 10
406.8599348701856
 20
217.4295984401296
 30
0.0
 10
406.5396255340133
 20
217.6666659267289
 30
0.0
 10
406.2342302312452
 20
217.8848923062252
 30
0.0
 10
405.6545327801183
 20
218.2833140569388
 30
0.0
 10
405.3802262237591
 20
218.4635137832759
 30
0.0
 10
404.8645039374933
 20
218.7847385921768
 30
0.0
 10
404.623081234799
 20
218.9257715154422
 30
0.0
 10
404.2874919505239
 20
219.1063498017317
 30
0.0
 10
404.180059122728
 20
219.161372372391
 30
0.0
 10
404.0258562615485
 20
219.2358639428699
 30
0.0
 10
403.9756135437215
 20
219.2593534189579
 30
0.0
 10
403.902029407462
 20
219.2925336878945
 30
0.0
 10
403.877817445467
 20
219.3032423141098
 30
0.0
 10
403.8301459211172
 20
219.323904269776
 30
0.0
 10
403.6188546664965
 20
219.4135506433173
 30
0.0
 10
403.2743804274504
 20
219.5266509373969
 30
0.0
 10
403.0407912424151
 20
219.5404455501118
 30
0.0
 10
402.8999258978062
 20
219.5157258031834
 30
0.0
 10
402.8586985065
 20
219.5016327184245
 30
0.0
 10
402.8055539721919
 20
219.4715902927053
 30
0.0
 10
402.7892889968724
 20
219.4600917582987
 30
0.0
 10
402.7670835812757
 20
219.4405964842812
 30
0.0
 10
402.7600441764834
 20
219.4337198816145
 30
0.0
 10
402.7467197826676
 20
219.4192370284468
 30
0.0
 10
402.7278605951344
 20
219.3964167276704
 30
0.0
 10
402.7123699582075
 20
219.3703186420917
 30
0.0
 10
402.6946892924546
 20
219.3326215162308
 30
0.0
 10
402.6873344330944
 20
219.3123179391756
 30
0.0
 10
402.6697138198502
 20
219.2471083470208
 30
0.0
 10
402.6638948357411
 20
219.1979377956042
 30
0.0
 10
402.6638948357411
 20
219.1431399689654
 30
0.0
  0
SPLINE
  5
198
330
1F
100
AcDbEntity
  8
1
  6
Continuous
 62
    30
370
    13
100
AcDbSpline
210
0.0
220
0.0
230
1.0
 70
     8
 71
     3
 72
    32
 73
    28
 74
     0
 42
0.000000001
 43
0.0000000001
 40
0.0
 40
0.0
 40
0.0
 40
0.0
 40
0.1250000000000151
 40
0.2500000000000303
 40
0.2500000000000303
 40
0.3750000000000454
 40
0.3750000000000454
 40
0.4062500000000451
 40
0.4062500000000451
 40
0.4375000000000447
 40
0.4375000000000447
 40
0.4687500000000444
 40
0.4687500000000444
 40
0.5000000000000441
 40
0.5000000000000441
 40
0.6250000000000332
 40
0.6250000000000332
 40
0.7500000000000223
 40
0.7500000000000223
 40
0.8750000000000115
 40
0.8750000000000115
 40
0.906250000000009
 40
0.906250000000009
 40
0.9218750000000084
 40
0.9218750000000084
 40
0.9375000000000079
 40
1.0
 40
1.0
 40
1.0
 40
1.0
 10
402.6638948357411
 20
76.53879220915823
 30
0.0
 10
402.6638948357411
 20
76.42920455567831
 30
0.0
 10
402.7103891693068
 20
76.25667636544868
 30
0.0
 10
402.8493985136149
 20
76.1759801116351
 30
0.0
 10
403.0352909688894
 20
76.1415879412316
 30
0.0
 10
403.1516750621243
 20
76.14753976744802
 30
0.0
 10
403.3274234407593
 20
76.18489639425023
 30
0.0
 10
403.3641185946295
 20
76.19387635752241
 30
0.0
 10
403.440292313677
 20
76.21478764343911
 30
0.0
 10
403.4797939770019
 20
76.2267221795613
 30
0.0
 10
403.56161337993
 20
76.2535394091452
 30
0.0
 10
403.6039723416333
 20
76.26843878088117
 30
0.0
 10
403.6911568911255
 20
76.30104874416118
 30
0.0
 10
403.7360066513173
 20
76.31876537745786
 30
0.0
 10
403.9664102471934
 20
76.41427485166183
 30
0.0
 10
404.1703901322556
 20
76.5127957259776
 30
0.0
 10
404.6149269999902
 20
76.75155456559685
 30
0.0
 10
404.855491968314
 20
76.89180170680821
 30
0.0
 10
405.3713106472829
 20
77.21265140852701
 30
0.0
 10
405.6465692528621
 20
77.39325895649081
 30
0.0
 10
406.0115403311305
 20
77.64395964190909
 30
0.0
 10
406.0855808207897
 20
77.69534890731985
 30
0.0
 10
406.1982001731654
 20
77.77430718549931
 30
0.0
 10
406.236015629859
 20
77.80095030447548
 30
0.0
 10
406.3120797825958
 20
77.85480171816569
 30
0.0
 10
406.5032864332634
 20
77.99081671628628
 30
0.0
 10
406.6996624171496
 20
78.13371281964557
 30
0.0
 10
406.8599348701856
 20
78.25233373799402
 30
0.0
  0
SPLINE
  5
199
330
1F
100
AcDbEntity
  8
1
  6
Continuous
 62
    30
370
    13
100
AcDbSpline
210
0.0
220
0.0
230
1.0
 70
     8
 71
     3
 72
    35
 73
    31
 74
     0
 42
0.000000001
 43
0.0000000001
 40
0.0
 40
0.0
 40
0.0
 40
0.0
 40
0.1250000000000082
 40
0.1250000000000082
 40
0.2500000000000165
 40
0.2500000000000165
 40
0.3750000000000248
 40
0.3750000000000248
 40
0.4375000000000315
 40
0.4375000000000315
 40
0.4687500000000321
 40
0.4687500000000321
 40
0.4843750000000349
 40
0.4843750000000349
 40
0.5000000000000379
 40
0.6250000000000343
 40
0.7500000000000308
 40
0.7500000000000308
 40
0.812500000000029
 40
0.812500000000029
 40
0.843750000000028
 40
0.843750000000028
 40
0.8593750000000274
 40
0.8593750000000274
 40
0.875000000000027
 40
0.9062500000000202
 40
0.9062500000000202
 40
0.9375000000000135
 40
0.9375000000000135
 40
1.0
 40
1.0
 40
1.0
 40
1.0
 10
353.4678548012964
 20
78.25233373799412
 30
0.0
 10
353.7881641374687
 20
78.01526625139483
 30
0.0
 10
354.0935594402367
 20
77.79703987189853
 30
0.0
 10
354.6732568913637
 20
77.3986181211849
 30
0.0
 10
354.9475634477229
 20
77.21841839484783
 30
0.0
 10
355.4632857339886
 20
76.89719358594688
 30
0.0
 10
355.704708436683
 20
76.7561606626815
 30
0.0
 10
356.0402977209581
 20
76.57558237639198
 30
0.0
 10
356.147730548754
 20
76.5205598057327
 30
0.0
 10
356.3019334099334
 20
76.44606823525382
 30
0.0
 10
356.3521761277605
 20
76.42257875916575
 30
0.0
 10
356.42576026402
 20
76.3893984902292
 30
0.0
 10
356.449972226015
 20
76.37868986401386
 30
0.0
 10
356.4976437503648
 20
76.35802790834772
 30
0.0
 10
356.7089350049854
 20
76.26838153480641
 30
0.0
 10
357.0534094374106
 20
76.1552813784529
 30
0.0
 10
357.2869984290669
 20
76.14148662801193
 30
0.0
 10
357.4278637736758
 20
76.16620637494024
 30
0.0
 10
357.469091164982
 20
76.18029945969924
 30
0.0
 10
357.52223569929
 20
76.21034188541837
 30
0.0
 10
357.5385006746096
 20
76.22184041982503
 30
0.0
 10
357.5607060902063
 20
76.24133569384252
 30
0.0
 10
357.5677454949986
 20
76.24821229650914
 30
0.0
 10
357.5810698888144
 20
76.26269514967696
 30
0.0
 10
357.5999290763476
 20
76.2855154504533
 30
0.0
 10
357.6154197132745
 20
76.31161353603204
 30
0.0
 10
357.6331003790274
 20
76.34931066189286
 30
0.0
 10
357.6404552383875
 20
76.36961423894813
 30
0.0
 10
357.6580758516318
 20
76.43482383110288
 30
0.0
 10
357.6638948357409
 20
76.48399438251954
 30
0.0
 10
357.6638948357409
 20
76.53879220915829
 30
0.0
  0
SPLINE
  5
19A
330
1F
100
AcDbEntity
  8
1
  6
Continuous
 62
    30
370
    13
100
AcDbSpline
210
0.0
220
0.0
230
1.0
 70
     8
 71
     3
 72
    32
 73
    28
 74
     0
 42
0.000000001
 43
0.0000000001
 40
0.0
 40
0.0
 40
0.0
 40
0.0
 40
0.1250000000000152
 40
0.2500000000000304
 40
0.2500000000000304
 40
0.3750000000000455
 40
0.3750000000000455
 40
0.4062500000000451
 40
0.4062500000000451
 40
0.4375000000000446
 40
0.4375000000000446
 40
0.4687500000000441
 40
0.4687500000000441
 40
0.5000000000000436
 40
0.5000000000000436
 40
0.6250000000000322
 40
0.6250000000000322
 40
0.7500000000000207
 40
0.7500000000000207
 40
0.8750000000000092
 40
0.8750000000000092
 40
0.9062500000000066
 40
0.9062500000000066
 40
0.921875000000005
 40
0.921875000000005
 40
0.9375000000000033
 40
1.0
 40
1.0
 40
1.0
 40
1.0
 10
357.6638948357412
 20
219.1431399689655
 30
0.0
 10
357.6638948357412
 20
219.2527276224454
 30
0.0
 10
357.6174005021755
 20
219.4252558126751
 30
0.0
 10
357.4783911578675
 20
219.5059520664886
 30
0.0
 10
357.2924987025929
 20
219.5403442368921
 30
0.0
 10
357.176114609358
 20
219.5343924106757
 30
0.0
 10
357.000366230723
 20
219.4970357838735
 30
0.0
 10
356.9636710768528
 20
219.4880558206013
 30
0.0
 10
356.8874973578053
 20
219.4671445346846
 30
0.0
 10
356.8479956944804
 20
219.4552099985624
 30
0.0
 10
356.7661762915523
 20
219.4283927689785
 30
0.0
 10
356.723817329849
 20
219.4134933972425
 30
0.0
 10
356.6366327803568
 20
219.3808834339625
 30
0.0
 10
356.5917830201651
 20
219.3631668006659
 30
0.0
 10
356.3613794242889
 20
219.2676573264619
 30
0.0
 10
356.1573995392267
 20
219.1691364521461
 30
0.0
 10
355.7128626714921
 20
218.9303776125269
 30
0.0
 10
355.4722977031684
 20
218.7901304713155
 30
0.0
 10
354.9564790241994
 20
218.4692807695967
 30
0.0
 10
354.6812204186202
 20
218.2886732216329
 30
0.0
 10
354.3162493403518
 20
218.0379725362146
 30
0.0
 10
354.2422088506926
 20
217.9865832708038
 30
0.0
 10
354.1295894983169
 20
217.9076249926244
 30
0.0
 10
354.0917740416234
 20
217.8809818736482
 30
0.0
 10
354.0157098888865
 20
217.827130459958
 30
0.0
 10
353.8245032382189
 20
217.6911154618374
 30
0.0
 10
353.6281272543327
 20
217.5482193584781
 30
0.0
 10
353.4678548012967
 20
217.4295984401297
 30
0.0
  0
SPLINE
  5
19B
330
1F
100
AcDbEntity
  8
1
  6
Continuous
 62
    30
370
    13
100
AcDbSpline
210
0.0
220
0.0
230
1.0
 70
     8
 71
     3
 72
    14
 73
    10
 74
     0
 42
0.000000001
 43
0.0000000001
 40
0.0
 40
0.0
 40
0.0
 40
0.0
 40
0.0464083280420199
 40
0.0464083280420199
 40
0.36427221869468
 40
0.36427221869468
 40
0.6821361093473398
 40
0.6821361093473398
 40
1.0
 40
1.0
 40
1.0
 40
1.0
 10
367.2095427941474
 20
231.8480180528098
 30
0.0
 10
367.2475874361575
 20
231.8538970638881
 30
0.0
 10
367.2847369252985
 20
231.8591997785559
 30
0.0
 10
367.5693386524187
 20
231.8963220399287
 30
0.0
 10
367.7759216176916
 20
231.9018583332256
 30
0.0
 10
368.1069025133602
 20
231.8601089221791
 30
0.0
 10
368.2312985837126
 20
231.8128220205939
 30
0.0
 10
368.3977244055401
 20
231.6650414051505
 30
0.0
 10
368.4397569047068
 20
231.5645506850395
 30
0.0
 10
368.4397569047068
 20
231.4366182241212
 30
0.0
  0
SPLINE
  5
19C
330
1F
100
AcDbEntity
  8
1
  6
Continuous
 62
    30
370
    13
100
AcDbSpline
210
0.0
220
0.0
230
1.0
 70
     8
 71
     3
 72
    19
 73
    15
 74
     0
 42
0.000000001
 43
0.0000000001
 40
0.0
 40
0.0
 40
0.0
 40
0.0
 40
0.1592864197950325
 40
0.1592864197950325
 40
0.1991080247437948
 40
0.1991080247437948
 40
0.2389296296925571
 40
0.3185728395900903
 40
0.3185728395900903
 40
0.6371456791802314
 40
0.6371456791802314
 40
0.9557185187703725
 40
0.9557185187703725
 40
1.0
 40
1.0
 40
1.0
 40
1.0
 10
368.4397569047064
 20
64.24531395400248
 30
0.0
 10
368.4397569047064
 20
64.18132867197912
 30
0.0
 10
368.4292299825835
 20
64.12400307383083
 30
0.0
 10
368.4028120729749
 20
64.06068285496808
 30
0.0
 10
368.3968639541065
 20
64.04843485917533
 30
0.0
 10
368.383660402832
 20
64.02480885435574
 30
0.0
 10
368.3618887228961
 20
63.99066015869273
 30
0.0
 10
368.3342423701843
 20
63.96036162712808
 30
0.0
 10
368.2291261665231
 20
63.86784323976678
 30
0.0
 10
368.1036163420106
 20
63.82090220296553
 30
0.0
 10
367.7711536073974
 20
63.7799914030367
 30
0.0
 10
367.5641987536254
 20
63.78602339785334
 30
0.0
 10
367.2820295187377
 20
63.82312399445172
 30
0.0
 10
367.246806721892
 20
63.82816437007153
 30
0.0
 10
367.2107939001912
 20
63.83371937394103
 30
0.0
  0
SPLINE
  5
19D
330
1F
100
AcDbEntity
  8
1
  6
Continuous
 62
    30
370
    13
100
AcDbSpline
210
0.0
220
0.0
230
1.0
 70
     8
 71
     3
 72
    14
 73
    10
 74
     0
 42
0.000000001
 43
0.0000000001
 40
0.0
 40
0.0
 40
0.0
 40
0.0
 40
0.0464083280420118
 40
0.0464083280420118
 40
0.3642722186946745
 40
0.3642722186946745
 40
0.6821361093473373
 40
0.6821361093473373
 40
1.0
 40
1.0
 40
1.0
 40
1.0
 10
393.118246877335
 20
63.83391412531391
 30
0.0
 10
393.0802022353249
 20
63.82803511423557
 30
0.0
 10
393.0430527461838
 20
63.82273239956775
 30
0.0
 10
392.7584510190637
 20
63.78561013819495
 30
0.0
 10
392.5518680537908
 20
63.78007384489806
 30
0.0
 10
392.2208871581222
 20
63.82182325594464
 30
0.0
 10
392.0964910877698
 20
63.8691101575298
 30
0.0
 10
391.9300652659423
 20
64.01689077297321
 30
0.0
 10
391.8880327667756
 20
64.11738149308414
 30
0.0
 10
391.8880327667756
 20
64.24531395400246
 30
0.0
  0
SPLINE
  5
19E
330
1F
100
AcDbEntity
  8
1
  6
Continuous
 62
    30
370
    13
100
AcDbSpline
210
0.0
220
0.0
230
1.0
 70
     8
 71
     3
 72
    19
 73
    15
 74
     0
 42
0.000000001
 43
0.0000000001
 40
0.0
 40
0.0
 40
0.0
 40
0.0
 40
0.1592864197950311
 40
0.1592864197950311
 40
0.199108024743793
 40
0.199108024743793
 40
0.238929629692555
 40
0.3185728395900874
 40
0.3185728395900874
 40
0.6371456791802254
 40
0.6371456791802254
 40
0.9557185187703633
 40
0.9557185187703633
 40
1.0
 40
1.0
 40
1.0
 40
1.0
 10
391.8880327667756
 20
231.4366182241212
 30
0.0
 10
391.8880327667756
 20
231.5006035061446
 30
0.0
 10
391.8985596888984
 20
231.5579291042928
 30
0.0
 10
391.924977598507
 20
231.6212493231556
 30
0.0
 10
391.9309257173754
 20
231.6334973189483
 30
0.0
 10
391.9441292686499
 20
231.6571233237679
 30
0.0
 10
391.9659009485858
 20
231.6912720194309
 30
0.0
 10
391.9935473012977
 20
231.7215705509956
 30
0.0
 10
392.0986635049588
 20
231.8140889383569
 30
0.0
 10
392.2241733294713
 20
231.8610299751582
 30
0.0
 10
392.5566360640846
 20
231.9019407750869
 30
0.0
 10
392.7635909178565
 20
231.8959087802703
 30
0.0
 10
393.0457601527443
 20
231.8588081836719
 30
0.0
 10
393.08098294959
 20
231.8537678080521
 30
0.0
 10
393.1169957712908
 20
231.8482128041825
 30
0.0
  0
SPLINE
  5
19F
330
1F
100
AcDbEntity
  8
1
  6
Continuous
 62
    30
370
    13
100
AcDbSpline
210
0.0
220
0.0
230
1.0
 70
     8
 71
     3
 72
    45
 73
    41
 74
     0
 42
0.000000001
 43
0.0000000001
 40
0.0
 40
0.0
 40
0.0
 40
0.0
 40
0.1250000000000108
 40
0.1250000000000108
 40
0.1875000000000161
 40
0.1875000000000161
 40
0.2500000000000215
 40
0.2500000000000215
 40
0.3125000000000268
 40
0.3125000000000268
 40
0.3750000000000321
 40
0.3750000000000321
 40
0.4062500000000346
 40
0.4062500000000346
 40
0.4140625000000349
 40
0.4140625000000349
 40
0.4218750000000351
 40
0.4375000000000343
 40
0.5000000000000322
 40
0.5000000000000322
 40
0.5625000000000303
 40
0.5625000000000303
 40
0.6250000000000282
 40
0.6250000000000282
 40
0.6875000000000262
 40
0.6875000000000262
 40
0.7500000000000241
 40
0.7500000000000241
 40
0.7812500000000235
 40
0.7812500000000235
 40
0.789062500000023
 40
0.789062500000023
 40
0.7968750000000224
 40
0.7968750000000224
 40
0.8125000000000211
 40
0.8750000000000141
 40
0.8750000000000141
 40
0.937500000000007
 40
0.937500000000007
 40
1.0
 40
1.0
 40
1.0
 40
1.0
 10
335.163894835741
 20
95.40635807918036
 30
0.0
 10
335.8607270100405
 20
94.47608980690154
 30
0.0
 10
336.5767131634505
 20
93.5676412003732
 30
0.0
 10
337.6789148754303
 20
92.23858734597789
 30
0.0
 10
338.0510164036502
 20
91.8011729139806
 30
0.0
 10
338.8044869852824
 20
90.93769589328421
 30
0.0
 10
339.1858566106703
 20
90.51163359282488
 30
0.0
 10
339.9576785505859
 20
89.6709949090513
 30
0.0
 10
340.3481316270806
 20
89.25641892738402
 30
0.0
 10
341.1378645332525
 20
88.43886560094495
 30
0.0
 10
341.5371453897753
 20
88.0358888179468
 30
0.0
 10
342.1424215799711
 20
87.44018045760083
 30
0.0
 10
342.34523860255
 20
87.24307014266404
 30
0.0
 10
342.6000474783101
 20
86.99850904150105
 30
0.0
 10
342.6510878076056
 20
86.94967470641886
 30
0.0
 10
342.7531430342353
 20
86.85233444219601
 30
0.0
 10
342.9062354211702
 20
86.70677061087675
 30
0.0
 10
343.4676404813484
 20
86.17793263655199
 30
0.0
 10
343.9779896774137
 20
85.7119186484305
 30
0.0
 10
344.7932529253046
 20
84.98462974639693
 30
0.0
 10
345.2002377516566
 20
84.63015263227291
 30
0.0
 10
346.0114883504604
 20
83.93889377559867
 30
0.0
 10
346.4157552636423
 20
83.60211272096454
 30
0.0
 10
347.219962063788
 20
82.94549357274612
 30
0.0
 10
347.6199033744983
 20
82.62565626966354
 30
0.0
 10
348.4136284841347
 20
82.00203578512162
 30
0.0
 10
348.8074141102542
 20
81.69825351297445
 30
0.0
 10
349.391898490666
 20
81.25383267403649
 30
0.0
 10
349.5856919890784
 20
81.10756647260811
 30
0.0
 10
349.826457172339
 20
80.9269831545884
 30
0.0
 10
349.8745363203541
 20
80.89097893211147
 30
0.0
 10
349.9705420322433
 20
80.81919291594302
 30
0.0
 10
350.0184514448767
 20
80.78342399311784
 30
0.0
 10
350.1616929398432
 20
80.67663337275546
 30
0.0
 10
350.6363021677927
 20
80.32381854755259
 30
0.0
 10
351.0962630989721
 20
79.9863313808328
 30
0.0
 10
351.8115741007485
 20
79.46371364222526
 30
0.0
 10
352.1589179064372
 20
79.21108554654005
 30
0.0
 10
352.8309434723037
 20
78.72093863547548
 30
0.0
 10
353.1556273876979
 20
78.48341962850766
 30
0.0
 10
353.4678548012964
 20
78.25233373799412
 30
0.0
  0
SPLINE
  5
1A0
330
1F
100
AcDbEntity
  8
1
  6
Continuous
 62
    30
370
    13
100
AcDbSpline
210
0.0
220
0.0
230
1.0
 70
     8
 71
     3
 72
    43
 73
    39
 74
     0
 42
0.000000001
 43
0.0000000001
 40
0.0
 40
0.0
 40
0.0
 40
0.0
 40
0.0625000000000096
 40
0.0625000000000096
 40
0.1250000000000192
 40
0.1250000000000192
 40
0.2500000000000391
 40
0.2500000000000391
 40
0.2812500000000433
 40
0.296875000000045
 40
0.3046875000000457
 40
0.3046875000000457
 40
0.3125000000000465
 40
0.3125000000000465
 40
0.3750000000000435
 40
0.3750000000000435
 40
0.4375000000000406
 40
0.4375000000000406
 40
0.5000000000000376
 40
0.5000000000000376
 40
0.5625000000000346
 40
0.5625000000000346
 40
0.6250000000000318
 40
0.6250000000000318
 40
0.632812500000031
 40
0.632812500000031
 40
0.6406250000000302
 40
0.6406250000000302
 40
0.6562500000000283
 40
0.6875000000000254
 40
0.6875000000000254
 40
0.7500000000000203
 40
0.7500000000000203
 40
0.8125000000000151
 40
0.8125000000000151
 40
0.87500000000001
 40
0.87500000000001
 40
1.0
 40
1.0
 40
1.0
 40
1.0
 10
353.4678548012967
 20
217.4295984401297
 30
0.0
 10
353.156044013259
 20
217.1988209027092
 30
0.0
 10
352.8324135697723
 20
216.9620704311617
 30
0.0
 10
352.1639909684955
 20
216.4745420911247
 30
0.0
 10
351.8191963728117
 20
216.2237640975369
 30
0.0
 10
350.7563901503549
 20
215.4473298569019
 30
0.0
 10
350.0100271487573
 20
214.8975506202656
 30
0.0
 10
349.0395023307061
 20
214.1602722079085
 30
0.0
 10
348.7455183664263
 20
213.9353372402875
 30
0.0
 10
348.397881609563
 20
213.6660336775642
 30
0.0
 10
348.2479271352323
 20
213.5491103461534
 30
0.0
 10
348.1477458804046
 20
213.4708227566015
 30
0.0
 10
348.0975272688014
 20
213.4314921573491
 30
0.0
 10
347.6453197451593
 20
213.0765240090008
 30
0.0
 10
347.2411405681279
 20
212.7535268272039
 30
0.0
 10
346.4302251102984
 20
212.0918286565206
 30
0.0
 10
346.0234868798136
 20
211.7531287674336
 30
0.0
 10
345.2090513379472
 20
211.0594196170212
 30
0.0
 10
344.8013525030062
 20
210.704411263838
 30
0.0
 10
343.9863716044133
 20
209.9776053602777
 30
0.0
 10
343.5790883249505
 20
209.6058085615358
 30
0.0
 10
342.766132889589
 20
208.8450469145269
 30
0.0
 10
342.3604597467745
 20
208.4560826884855
 30
0.0
 10
341.9055718742046
 20
208.0086730635896
 30
0.0
 10
341.855049448152
 20
207.9588244714331
 30
0.0
 10
341.7540478425626
 20
207.8588539530989
 30
0.0
 10
341.7035555522014
 20
207.8087188991859
 30
0.0
 10
341.5523224425648
 20
207.6580787908769
 30
0.0
 10
341.2507016380449
 20
207.355731560155
 30
0.0
 10
340.9516404909911
 20
207.0501883760031
 30
0.0
 10
340.3569839941172
 20
206.4348580995646
 30
0.0
 10
339.9651698208365
 20
206.0189785529561
 30
0.0
 10
339.1910019548604
 20
205.1760187050873
 30
0.0
 10
338.8086474884924
 20
204.7489388189976
 30
0.0
 10
338.0535421232851
 20
203.8837185624309
 30
0.0
 10
337.6807906503652
 20
203.445578486777
 30
0.0
 10
336.5770836469758
 20
202.1147939299099
 30
0.0
 10
335.8606853779985
 20
201.205786792606
 30
0.0
 10
335.1638948357412
 20
200.2755740989435
 30
0.0
  0
SPLINE
  5
1A1
330
1F
100
AcDbEntity
  8
1
  6
Continuous
 62
    30
370
    13
100
AcDbSpline
210
0.0
220
0.0
230
1.0
 70
     8
 71
     3
 72
    51
 73
    47
 74
     0
 42
0.000000001
 43
0.0000000001
 40
0.0
 40
0.0
 40
0.0
 40
0.0
 40
0.0645932236532378
 40
0.0645932236532378
 40
0.1291864473064756
 40
0.1291864473064756
 40
0.1937796709597134
 40
0.1937796709597134
 40
0.2018538239163671
 40
0.2018538239163671
 40
0.2099279768730209
 40
0.226076282786331
 40
0.2422245886996412
 40
0.2422245886996412
 40
0.2583728946129513
 40
0.2583728946129513
 40
0.3229661182661868
 40
0.3229661182661868
 40
0.3875593419194224
 40
0.3875593419194224
 40
0.4521525655726579
 40
0.4521525655726579
 40
0.5167457892258935
 40
0.5167457892258935
 40
0.5248199421825479
 40
0.5248199421825479
 40
0.5328940951392023
 40
0.54904240105251
 40
0.5813390128791255
 40
0.5813390128791255
 40
0.6459322365323568
 40
0.6459322365323568
 40
0.710525460185588
 40
0.710525460185588
 40
0.7751186838388193
 40
0.7751186838388193
 40
0.8397119074920505
 40
0.8397119074920505
 40
0.9043051311452818
 40
0.9043051311452818
 40
0.9366017429718975
 40
0.9366017429718975
 40
0.9527500488852052
 40
0.9527500488852052
 40
0.968898354798513
 40
1.0
 40
1.0
 40
1.0
 40
1.0
 10
357.663894835741
 20
110.8950596852395
 30
0.0
 10
357.663894835741
 20
110.9417922331677
 30
0.0
 10
357.6434108128226
 20
111.0180109351866
 30
0.0
 10
357.5650742802435
 20
111.224819609758
 30
0.0
 10
357.5072117551232
 20
111.355421739527
 30
0.0
 10
357.3567265875508
 20
111.6676774576233
 30
0.0
 10
357.2640976352949
 20
111.8493387218547
 30
0.0
 10
357.1413983265838
 20
112.0810936711298
 30
0.0
 10
357.1275111447633
 20
112.107218757975
 30
0.0
 10
357.0992823389824
 20
112.1601208530043
 30
0.0
 10
357.0562382182195
 20
112.2404882629559
 30
0.0
 10
356.9810449335779
 20
112.3794362087709
 30
0.0
 10
356.9173093857024
 20
112.4957928956361
 30
0.0
 10
356.8518308791878
 20
112.6146849649089
 30
0.0
 10
356.8181934904208
 20
112.6754462707939
 30
0.0
 10
356.6463278043859
 20
112.984424735682
 30
0.0
 10
356.4968196941047
 20
113.2486292691318
 30
0.0
 10
356.1771408144
 20
113.8065611207786
 30
0.0
 10
356.0069577652469
 20
114.1003045580011
 30
0.0
 10
355.6483786148892
 20
114.7140165673036
 30
0.0
 10
355.459975155406
 20
115.033994835581
 30
0.0
 10
355.0668090176341
 20
115.6976772697614
 30
0.0
 10
354.8620416982979
 20
116.0413875710837
 30
0.0
 10
354.6232811864154
 20
116.4403225379762
 30
0.0
 10
354.5966312161792
 20
116.4848261798105
 30
0.0
 10
354.5431850505114
 20
116.5740295083009
 30
0.0
 10
354.4627658638616
 20
116.7081797168247
 30
0.0
 10
354.2734021313946
 20
117.023573823747
 30
0.0
 10
354.1082446602199
 20
117.2978556839722
 30
0.0
 10
353.7743738017212
 20
117.8513696283251
 30
0.0
 10
353.5470600145247
 20
118.2269688933872
 30
0.0
 10
353.0840069119482
 20
118.9899982670829
 30
0.0
 10
352.8482650986264
 20
119.3774315517704
 30
0.0
 10
352.369163126895
 20
120.163081789086
 30
0.0
 10
352.1258013158476
 20
120.5613008484346
 30
0.0
 10
351.6321009422861
 20
121.367690671504
 30
0.0
 10
351.3817612490067
 20
121.7758628796062
 30
0.0
 10
350.8746217584538
 20
122.6014903768718
 30
0.0
 10
350.6178211658787
 20
123.0189466832066
 30
0.0
 10
350.2280901592477
 20
123.6516874095908
 30
0.0
 10
350.0974241193859
 20
123.8636945996283
 30
0.0
 10
349.900325431534
 20
124.1833022600736
 30
0.0
 10
349.8344332285433
 20
124.2901194401012
 30
0.0
 10
349.7024965325511
 20
124.5039407366828
 30
0.0
 10
349.5091755988151
 20
124.8171558898213
 30
0.0
 10
349.315004811574
 20
125.1315018841809
 30
0.0
 10
349.1868401353536
 20
125.3388901225691
 30
0.0
  0
SPLINE
  5
1A2
330
1F
100
AcDbEntity
  8
1
  6
Continuous
 62
    30
370
    13
100
AcDbSpline
210
0.0
220
0.0
230
1.0
 70
     8
 71
     3
 72
    51
 73
    47
 74
     0
 42
0.000000001
 43
0.0000000001
 40
0.0
 40
0.0
 40
0.0
 40
0.0
 40
0.0311016452018641
 40
0.0472499511151657
 40
0.0472499511151657
 40
0.0633982570284673
 40
0.0633982570284673
 40
0.0956948688550703
 40
0.0956948688550703
 40
0.160288092508277
 40
0.160288092508277
 40
0.2248813161614837
 40
0.2248813161614837
 40
0.2894745398146901
 40
0.2894745398146901
 40
0.3540677634678965
 40
0.3540677634678965
 40
0.418660987121103
 40
0.418660987121103
 40
0.4509575989477062
 40
0.4671059048610076
 40
0.475180057817659
 40
0.475180057817659
 40
0.4832542107743101
 40
0.4832542107743101
 40
0.54784743442752
 40
0.54784743442752
 40
0.6124406580807301
 40
0.6124406580807301
 40
0.67703388173394
 40
0.67703388173394
 40
0.7416271053871499
 40
0.7416271053871499
 40
0.7577754113004538
 40
0.7577754113004538
 40
0.7739237172137575
 40
0.7900720231270614
 40
0.7981461760837119
 40
0.7981461760837119
 40
0.8062203290403626
 40
0.8062203290403626
 40
0.870813552693575
 40
0.870813552693575
 40
0.9354067763467876
 40
0.9354067763467876
 40
1.0
 40
1.0
 40
1.0
 40
1.0
 10
349.1868401353489
 20
170.343042055547
 30
0.0
 10
349.315004811571
 20
170.5504302939377
 30
0.0
 10
349.5091755988137
 20
170.8647762882999
 30
0.0
 10
349.7024965325512
 20
171.177991441441
 30
0.0
 10
349.8344332285434
 20
171.3918127380226
 30
0.0
 10
349.9003254315342
 20
171.4986299180502
 30
0.0
 10
350.097424119386
 20
171.8182375784955
 30
0.0
 10
350.2280901592478
 20
172.030244768533
 30
0.0
 10
350.6178211658788
 20
172.6629854949172
 30
0.0
 10
350.8746217584539
 20
173.080441801252
 30
0.0
 10
351.3817612490068
 20
173.9060692985176
 30
0.0
 10
351.6321009422862
 20
174.3142415066197
 30
0.0
 10
352.1258013158478
 20
175.1206313296892
 30
0.0
 10
352.3691631268951
 20
175.5188503890377
 30
0.0
 10
352.8482650986265
 20
176.3045006263534
 30
0.0
 10
353.0840069119484
 20
176.6919339110408
 30
0.0
 10
353.5470600145248
 20
177.4549632847366
 30
0.0
 10
353.7743738017213
 20
177.8305625497987
 30
0.0
 10
354.1082446602201
 20
178.3840764941516
 30
0.0
 10
354.2734021313948
 20
178.6583583543768
 30
0.0
 10
354.4627658638617
 20
178.9737524612991
 30
0.0
 10
354.5431850505116
 20
179.1079026698229
 30
0.0
 10
354.5966312161793
 20
179.1971059983132
 30
0.0
 10
354.6232811864155
 20
179.2416096401475
 30
0.0
 10
354.8620416982981
 20
179.6405446070401
 30
0.0
 10
355.0668090176342
 20
179.9842549083623
 30
0.0
 10
355.4599751554061
 20
180.6479373425427
 30
0.0
 10
355.6483786148893
 20
180.9679156108202
 30
0.0
 10
356.0069577652471
 20
181.5816276201226
 30
0.0
 10
356.1771408144002
 20
181.8753710573451
 30
0.0
 10
356.4968196941048
 20
182.433302908992
 30
0.0
 10
356.646327804386
 20
182.6975074424417
 30
0.0
 10
356.818193490421
 20
183.0064859073298
 30
0.0
 10
356.851830879188
 20
183.0672472132148
 30
0.0
 10
356.9173093857026
 20
183.1861392824877
 30
0.0
 10
356.9810449224138
 20
183.3024959547932
 30
0.0
 10
357.0562382182197
 20
183.4414439151678
 30
0.0
 10
357.0992823389826
 20
183.5218113251195
 30
0.0
 10
357.1275111447635
 20
183.5747134201487
 30
0.0
 10
357.141398326584
 20
183.6008385069939
 30
0.0
 10
357.2640976352951
 20
183.8325934562691
 30
0.0
 10
357.356726587551
 20
184.0142547205004
 30
0.0
 10
357.5072117551234
 20
184.3265104385968
 30
0.0
 10
357.5650742802437
 20
184.4571125683657
 30
0.0
 10
357.6434108128228
 20
184.6639212429372
 30
0.0
 10
357.6638948357412
 20
184.740139944956
 30
0.0
 10
357.6638948357412
 20
184.7868724928842
 30
0.0
  0
SPLINE
  5
1A3
330
1F
100
AcDbEntity
  8
1
  6
Continuous
 62
    30
370
    18
100
AcDbSpline
210
0.0
220
0.0
230
1.0
 70
    24
 71
     3
 72
     8
 73
     4
 74
     0
 42
0.000000001
 43
0.0000000001
 40
0.0
 40
0.0
 40
0.0
 40
0.0
 40
1.0
 40
1.0
 40
1.0
 40
1.0
 10
403.1638948357411
 20
123.6126590275679
 30
0.0
 10
403.1638948357411
 20
123.6018573402227
 30
0.0
 10
403.1638948357411
 20
123.5910556528775
 30
0.0
 10
403.1638948357411
 20
123.5802539655324
 30
0.0
  0
SPLINE
  5
1A4
330
1F
100
AcDbEntity
  8
1
  6
Continuous
 62
    30
370
    18
100
AcDbSpline
210
0.0
220
0.0
230
1.0
 70
    24
 71
     3
 72
     8
 73
     4
 74
     0
 42
0.000000001
 43
0.0000000001
 40
0.0
 40
0.0
 40
0.0
 40
0.0
 40
1.0
 40
1.0
 40
1.0
 40
1.0
 10
357.1638948357411
 20
172.0692731505558
 30
0.0
 10
357.1638948357411
 20
172.080074837901
 30
0.0
 10
357.1638948357411
 20
172.0908765252462
 30
0.0
 10
357.1638948357411
 20
172.1016782125913
 30
0.0
  0
SPLINE
  5
1A5
330
1F
100
AcDbEntity
  8
1
  6
Continuous
 62
    30
370
    18
100
AcDbSpline
210
0.0
220
0.0
230
1.0
 70
    24
 71
     3
 72
     8
 73
     4
 74
     0
 42
0.000000001
 43
0.0000000001
 40
0.0
 40
0.0
 40
0.0
 40
0.0
 40
1.0
 40
1.0
 40
1.0
 40
1.0
 10
403.1638948357411
 20
123.0847108410412
 30
0.0
 10
403.1638948357411
 20
122.6555892619652
 30
0.0
 10
403.1638948357411
 20
122.2264676828892
 30
0.0
 10
403.1638948357411
 20
121.7973461038131
 30
0.0
  0
SPLINE
  5
1A6
330
1F
100
AcDbEntity
  8
1
  6
Continuous
 62
    30
370
    18
100
AcDbSpline
210
0.0
220
0.0
230
1.0
 70
    24
 71
     3
 72
     8
 73
     4
 74
     0
 42
0.000000001
 43
0.0000000001
 40
0.0
 40
0.0
 40
0.0
 40
0.0
 40
1.0
 40
1.0
 40
1.0
 40
1.0
 10
357.1638948357411
 20
172.1016782125913
 30
0.0
 10
357.1638948357411
 20
172.2668592540884
 30
0.0
 10
357.1638948357411
 20
172.4320402955854
 30
0.0
 10
357.1638948357411
 20
172.5972213370825
 30
0.0
  0
SPLINE
  5
1A7
330
1F
100
AcDbEntity
  8
1
  6
Continuous
 62
    30
370
    18
100
AcDbSpline
210
0.0
220
0.0
230
1.0
 70
    24
 71
     3
 72
     8
 73
     4
 74
     0
 42
0.000000001
 43
0.0000000001
 40
0.0
 40
0.0
 40
0.0
 40
0.0
 40
1.0
 40
1.0
 40
1.0
 40
1.0
 10
357.1638948357411
 20
172.5972213370825
 30
0.0
 10
357.1638948357411
 20
173.0263429161585
 30
0.0
 10
357.1638948357411
 20
173.4554644952345
 30
0.0
 10
357.1638948357411
 20
173.8845860743106
 30
0.0
  0
SPLINE
  5
1A8
330
1F
100
AcDbEntity
  8
1
  6
Continuous
 62
    30
370
    18
100
AcDbSpline
210
0.0
220
0.0
230
1.0
 70
    24
 71
     3
 72
     8
 73
     4
 74
     0
 42
0.000000001
 43
0.0000000001
 40
0.0
 40
0.0
 40
0.0
 40
0.0
 40
1.0
 40
1.0
 40
1.0
 40
1.0
 10
403.1638948357411
 20
123.5802539655324
 30
0.0
 10
403.1638948357411
 20
123.4150729240353
 30
0.0
 10
403.1638948357411
 20
123.2498918825383
 30
0.0
 10
403.1638948357411
 20
123.0847108410412
 30
0.0
  0
SPLINE
  5
1A9
330
1F
100
AcDbEntity
  8
1
  6
Continuous
 62
    30
370
    18
100
AcDbSpline
210
0.0
220
0.0
230
1.0
 70
    24
 71
     3
 72
     8
 73
     4
 74
     0
 42
0.000000001
 43
0.0000000001
 40
0.0
 40
0.0
 40
0.0
 40
0.0
 40
1.0
 40
1.0
 40
1.0
 40
1.0
 10
403.1638948357411
 20
125.3385680275678
 30
0.0
 10
403.1638948357411
 20
124.3256395806343
 30
0.0
 10
403.1638948357411
 20
123.7485045290059
 30
0.0
 10
403.1638948357411
 20
123.6126590275679
 30
0.0
  0
SPLINE
  5
1AA
330
1F
100
AcDbEntity
  8
1
  6
Continuous
 62
    30
370
    18
100
AcDbSpline
210
0.0
220
0.0
230
1.0
 70
    24
 71
     3
 72
     8
 73
     4
 74
     0
 42
0.000000001
 43
0.0000000001
 40
0.0
 40
0.0
 40
0.0
 40
0.0
 40
1.0
 40
1.0
 40
1.0
 40
1.0
 10
357.1638948357411
 20
170.3433641505558
 30
0.0
 10
357.1638948357411
 20
171.3562925974894
 30
0.0
 10
357.1638948357411
 20
171.9334276491178
 30
0.0
 10
357.1638948357411
 20
172.0692731505558
 30
0.0
  0
SPLINE
  5
1AB
330
1F
100
AcDbEntity
  8
1
  6
Continuous
 62
    30
370
    18
100
AcDbSpline
210
0.0
220
0.0
230
1.0
 70
    24
 71
     3
 72
     8
 73
     4
 74
     0
 42
0.000000001
 43
0.0000000001
 40
0.0
 40
0.0
 40
0.0
 40
0.0
 40
1.0
 40
1.0
 40
1.0
 40
1.0
 10
357.163894835741
 20
124.6729555162859
 30
0.0
 10
357.163894835741
 20
124.8660749758961
 30
0.0
 10
357.163894835741
 20
125.0823178520833
 30
0.0
 10
357.163894835741
 20
125.3216625162859
 30
0.0
  0
SPLINE
  5
1AC
330
1F
100
AcDbEntity
  8
1
  6
Continuous
 62
    30
370
    18
100
AcDbSpline
210
0.0
220
0.0
230
1.0
 70
    24
 71
     3
 72
     8
 73
     4
 74
     0
 42
0.000000001
 43
0.0000000001
 40
0.0
 40
0.0
 40
0.0
 40
0.0
 40
1.0
 40
1.0
 40
1.0
 40
1.0
 10
403.163894835741
 20
171.0089766618377
 30
0.0
 10
403.1638948357411
 20
170.8158572022276
 30
0.0
 10
403.1638948357411
 20
170.5996143260404
 30
0.0
 10
403.1638948357411
 20
170.3602696618377
 30
0.0
  0
SPLINE
  5
1AD
330
1F
100
AcDbEntity
  8
1
  6
Continuous
 62
    30
370
    13
100
AcDbSpline
210
0.0
220
0.0
230
1.0
 70
     8
 71
     3
 72
    43
 73
    39
 74
     0
 42
0.000000001
 43
0.0000000001
 40
0.0
 40
0.0
 40
0.0
 40
0.0
 40
0.062500000000005
 40
0.062500000000005
 40
0.1250000000000099
 40
0.1250000000000099
 40
0.2500000000000207
 40
0.2500000000000207
 40
0.281250000000023
 40
0.2968750000000237
 40
0.3046875000000239
 40
0.3046875000000239
 40
0.3125000000000241
 40
0.3125000000000241
 40
0.3750000000000238
 40
0.3750000000000238
 40
0.4375000000000234
 40
0.4375000000000234
 40
0.500000000000023
 40
0.500000000000023
 40
0.5625000000000226
 40
0.5625000000000226
 40
0.6250000000000222
 40
0.6250000000000222
 40
0.6328125000000218
 40
0.6328125000000218
 40
0.6406250000000212
 40
0.6406250000000212
 40
0.65625000000002
 40
0.6875000000000181
 40
0.6875000000000181
 40
0.7500000000000143
 40
0.7500000000000143
 40
0.8125000000000107
 40
0.8125000000000107
 40
0.875000000000007
 40
0.875000000000007
 40
1.0
 40
1.0
 40
1.0
 40
1.0
 10
406.8599348701856
 20
78.25233373799405
 30
0.0
 10
407.1717456582233
 20
78.4831112754145
 30
0.0
 10
407.49537610171
 20
78.71986174696197
 30
0.0
 10
408.1637987029868
 20
79.20739008699904
 30
0.0
 10
408.5085932986706
 20
79.45816808058682
 30
0.0
 10
409.5713995211274
 20
80.23460232122183
 30
0.0
 10
410.317762522725
 20
80.78438155785807
 30
0.0
 10
411.2882873407762
 20
81.52165997021523
 30
0.0
 10
411.582271305056
 20
81.74659493783624
 30
0.0
 10
411.9299080619193
 20
82.01589850055949
 30
0.0
 10
412.0798625362499
 20
82.13282183197035
 30
0.0
 10
412.1800437910778
 20
82.2111094215222
 30
0.0
 10
412.2302624026809
 20
82.25044002077459
 30
0.0
 10
412.6824699263231
 20
82.60540816912288
 30
0.0
 10
413.0866491033544
 20
82.92840535091982
 30
0.0
 10
413.8975645611839
 20
83.59010352160313
 30
0.0
 10
414.3043027916686
 20
83.92880341069011
 30
0.0
 10
415.118738333535
 20
84.62251256110257
 30
0.0
 10
415.526437168476
 20
84.9775209142857
 30
0.0
 10
416.341418067069
 20
85.704326817846
 30
0.0
 10
416.7487013465318
 20
86.07612361658798
 30
0.0
 10
417.5616567818932
 20
86.83688526359686
 30
0.0
 10
417.9673299247078
 20
87.22584948963826
 30
0.0
 10
418.4222177972777
 20
87.67325911453412
 30
0.0
 10
418.4727402233302
 20
87.7231077066906
 30
0.0
 10
418.5737418289197
 20
87.8230782250248
 30
0.0
 10
418.624234119281
 20
87.87321327893778
 30
0.0
 10
418.7754672289175
 20
88.02385338724682
 30
0.0
 10
419.0770880334373
 20
88.32620061796874
 30
0.0
 10
419.3761491804912
 20
88.63174380212067
 30
0.0
 10
419.9708056773651
 20
89.24707407855917
 30
0.0
 10
420.3626198506458
 20
89.6629536251676
 30
0.0
 10
421.1367877166219
 20
90.50591347303646
 30
0.0
 10
421.5191421829899
 20
90.93299335912613
 30
0.0
 10
422.2742475481973
 20
91.79821361569283
 30
0.0
 10
422.646999021117
 20
92.23635369134678
 30
0.0
 10
423.7507060245064
 20
93.56713824821384
 30
0.0
 10
424.4671042934838
 20
94.47614538551777
 30
0.0
 10
425.1638948357411
 20
95.40635807918025
 30
0.0
  0
SPLINE
  5
1AE
330
1F
100
AcDbEntity
  8
1
  6
Continuous
 62
    30
370
    13
100
AcDbSpline
210
0.0
220
0.0
230
1.0
 70
     8
 71
     3
 72
    45
 73
    41
 74
     0
 42
0.000000001
 43
0.0000000001
 40
0.0
 40
0.0
 40
0.0
 40
0.0
 40
0.124999999999994
 40
0.124999999999994
 40
0.1874999999999905
 40
0.1874999999999905
 40
0.249999999999987
 40
0.249999999999987
 40
0.3124999999999834
 40
0.3124999999999834
 40
0.3749999999999798
 40
0.3749999999999798
 40
0.4062499999999781
 40
0.4062499999999781
 40
0.4140624999999778
 40
0.4140624999999778
 40
0.4218749999999776
 40
0.4374999999999776
 40
0.4999999999999793
 40
0.4999999999999793
 40
0.5624999999999811
 40
0.5624999999999811
 40
0.6249999999999829
 40
0.6249999999999829
 40
0.6874999999999847
 40
0.6874999999999847
 40
0.7499999999999865
 40
0.7499999999999865
 40
0.781249999999987
 40
0.781249999999987
 40
0.7890624999999876
 40
0.7890624999999876
 40
0.7968749999999881
 40
0.7968749999999881
 40
0.8124999999999893
 40
0.8749999999999929
 40
0.8749999999999929
 40
0.9374999999999964
 40
0.9374999999999964
 40
1.0
 40
1.0
 40
1.0
 40
1.0
 10
425.1638948357411
 20
200.2755740989434
 30
0.0
 10
424.4670626614415
 20
201.2058423712222
 30
0.0
 10
423.7510765080315
 20
202.1142909777505
 30
0.0
 10
422.6488747960517
 20
203.4433448321458
 30
0.0
 10
422.2767732678318
 20
203.8807592641431
 30
0.0
 10
421.5233026861997
 20
204.7442362848395
 30
0.0
 10
421.1419330608117
 20
205.1702985852988
 30
0.0
 10
420.3701111208962
 20
206.0109372690725
 30
0.0
 10
419.9796580444014
 20
206.4255132507397
 30
0.0
 10
419.1899251382295
 20
207.2430665771788
 30
0.0
 10
418.7906442817066
 20
207.6460433601769
 30
0.0
 10
418.185368091511
 20
208.2417517205229
 30
0.0
 10
417.982551068932
 20
208.4388620354597
 30
0.0
 10
417.7277421931719
 20
208.6834231366227
 30
0.0
 10
417.6767018638765
 20
208.7322574717049
 30
0.0
 10
417.5746466372467
 20
208.8295977359277
 30
0.0
 10
417.4215542503118
 20
208.975161567247
 30
0.0
 10
416.8601491901337
 20
209.5039995415718
 30
0.0
 10
416.3497999940683
 20
209.9700135296932
 30
0.0
 10
415.5345367461774
 20
210.6973024317268
 30
0.0
 10
415.1275519198254
 20
211.0517795458508
 30
0.0
 10
414.3163013210217
 20
211.7430384025251
 30
0.0
 10
413.9120344078398
 20
212.0798194571592
 30
0.0
 10
413.107827607694
 20
212.7364386053776
 30
0.0
 10
412.7078862969836
 20
213.0562759084602
 30
0.0
 10
411.9141611873474
 20
213.6798963930021
 30
0.0
 10
411.5203755612279
 20
213.9836786651493
 30
0.0
 10
410.935891180816
 20
214.4280995040872
 30
0.0
 10
410.7420976824035
 20
214.5743657055156
 30
0.0
 10
410.501332499143
 20
214.7549490235353
 30
0.0
 10
410.4532533511279
 20
214.7909532460122
 30
0.0
 10
410.3572476392387
 20
214.8627392621807
 30
0.0
 10
410.3093382266053
 20
214.8985081850059
 30
0.0
 10
410.1660967316388
 20
215.0052988053682
 30
0.0
 10
409.6914875036894
 20
215.3581136305711
 30
0.0
 10
409.2315265725098
 20
215.6956007972909
 30
0.0
 10
408.5162155707334
 20
216.2182185358984
 30
0.0
 10
408.1688717650447
 20
216.4708466315836
 30
0.0
 10
407.4968461991783
 20
216.9609935426482
 30
0.0
 10
407.1721622837841
 20
217.1985125496161
 30
0.0
 10
406.8599348701856
 20
217.4295984401296
 30
0.0
  0
SPLINE
  5
1AF
330
1F
100
AcDbEntity
  8
1
  6
Continuous
 62
    30
370
    13
100
AcDbSpline
210
0.0
220
0.0
230
1.0
 70
     8
 71
     3
 72
    51
 73
    47
 74
     0
 42
0.000000001
 43
0.0000000001
 40
0.0
 40
0.0
 40
0.0
 40
0.0
 40
0.0309451338420511
 40
0.0470960482780174
 40
0.0470960482780174
 40
0.0632469627139835
 40
0.0632469627139835
 40
0.0955487915859154
 40
0.0955487915859154
 40
0.1601524493297797
 40
0.1601524493297797
 40
0.2247561070736438
 40
0.2247561070736438
 40
0.2893597648175079
 40
0.2893597648175079
 40
0.3539634225613721
 40
0.3539634225613721
 40
0.4185670803052363
 40
0.4185670803052363
 40
0.4508689091771682
 40
0.4670198236131344
 40
0.4750952808311169
 40
0.4750952808311169
 40
0.4831707380490994
 40
0.4831707380490994
 40
0.5477743957929605
 40
0.5477743957929605
 40
0.6123780535368213
 40
0.6123780535368213
 40
0.6769817112806822
 40
0.6769817112806822
 40
0.7415853690245433
 40
0.7415853690245433
 40
0.7577362834605096
 40
0.7577362834605096
 40
0.7738871978964761
 40
0.7900381123324426
 40
0.7981135695504247
 40
0.7981135695504247
 40
0.8061890267684066
 40
0.8061890267684066
 40
0.870792684512271
 40
0.870792684512271
 40
0.9353963422561354
 40
0.9353963422561354
 40
1.0
 40
1.0
 40
1.0
 40
1.0
 10
411.1389529065642
 20
125.3356592907283
 30
0.0
 10
411.0114574447527
 20
125.1293529090506
 30
0.0
 10
410.8179532650848
 20
124.8160852610793
 30
0.0
 10
410.625293138931
 20
124.5039407366827
 30
0.0
 10
410.4933564429388
 20
124.2901194401011
 30
0.0
 10
410.4274642399481
 20
124.1833022600735
 30
0.0
 10
410.2303655520962
 20
123.8636945996283
 30
0.0
 10
410.0996995122344
 20
123.6516874095907
 30
0.0
 10
409.7099685056034
 20
123.0189466832065
 30
0.0
 10
409.4531679130283
 20
122.6014903768717
 30
0.0
 10
408.9460284224754
 20
121.7758628796062
 30
0.0
 10
408.695688729196
 20
121.367690671504
 30
0.0
 10
408.2019883556345
 20
120.5613008484346
 30
0.0
 10
407.9586265445871
 20
120.163081789086
 30
0.0
 10
407.4795245728557
 20
119.3774315517703
 30
0.0
 10
407.2437827595338
 20
118.9899982670829
 30
0.0
 10
406.7807296569574
 20
118.2269688933872
 30
0.0
 10
406.5534158697609
 20
117.851369628325
 30
0.0
 10
406.2195450112622
 20
117.2978556839721
 30
0.0
 10
406.0543875400875
 20
117.0235738237469
 30
0.0
 10
405.8650238076205
 20
116.7081797168246
 30
0.0
 10
405.7846046209707
 20
116.5740295083008
 30
0.0
 10
405.7311584553029
 20
116.4848261798105
 30
0.0
 10
405.7045084850667
 20
116.4403225379762
 30
0.0
 10
405.4657479731842
 20
116.0413875710836
 30
0.0
 10
405.260980653848
 20
115.6976772697613
 30
0.0
 10
404.8678145160761
 20
115.033994835581
 30
0.0
 10
404.6794110565929
 20
114.7140165673035
 30
0.0
 10
404.3208319062352
 20
114.1003045580011
 30
0.0
 10
404.150648857082
 20
113.8065611207785
 30
0.0
 10
403.8309699773774
 20
113.2486292691317
 30
0.0
 10
403.6814618670962
 20
112.984424735682
 30
0.0
 10
403.5095961810612
 20
112.6754462707939
 30
0.0
 10
403.4759587922943
 20
112.6146849649089
 30
0.0
 10
403.4104802857797
 20
112.495792895636
 30
0.0
 10
403.3467447379041
 20
112.3794362087709
 30
0.0
 10
403.2715514532626
 20
112.2404882629559
 30
0.0
 10
403.2285073324997
 20
112.1601208530042
 30
0.0
 10
403.2002785267187
 20
112.107218757975
 30
0.0
 10
403.1863913448982
 20
112.0810936711298
 30
0.0
 10
403.0636920361872
 20
111.8493387218546
 30
0.0
 10
402.9710630839313
 20
111.6676774576233
 30
0.0
 10
402.8205779163589
 20
111.3554217395269
 30
0.0
 10
402.7627153912385
 20
111.224819609758
 30
0.0
 10
402.6843788586595
 20
111.0180109351865
 30
0.0
 10
402.6638948357411
 20
110.9417922331677
 30
0.0
 10
402.6638948357411
 20
110.8950596852395
 30
0.0
  0
SPLINE
  5
1B0
330
1F
100
AcDbEntity
  8
1
  6
Continuous
 62
    30
370
    13
100
AcDbSpline
210
0.0
220
0.0
230
1.0
 70
     8
 71
     3
 72
    51
 73
    47
 74
     0
 42
0.000000001
 43
0.0000000001
 40
0.0
 40
0.0
 40
0.0
 40
0.0
 40
0.0645932236532355
 40
0.0645932236532355
 40
0.129186447306471
 40
0.129186447306471
 40
0.1937796709597065
 40
0.1937796709597065
 40
0.2018538239163598
 40
0.2018538239163598
 40
0.2099279768730132
 40
0.2260762827863225
 40
0.2422245886996317
 40
0.2422245886996317
 40
0.2583728946129409
 40
0.2583728946129409
 40
0.3229661182661729
 40
0.3229661182661729
 40
0.3875593419194048
 40
0.3875593419194048
 40
0.4521525655726368
 40
0.4521525655726368
 40
0.5167457892258687
 40
0.5167457892258687
 40
0.5248199421825226
 40
0.5248199421825226
 40
0.5328940951391764
 40
0.5490424010524854
 40
0.581339012879103
 40
0.581339012879103
 40
0.6459322365323381
 40
0.6459322365323381
 40
0.7105254601855732
 40
0.7105254601855732
 40
0.7751186838388084
 40
0.7751186838388084
 40
0.8397119074920435
 40
0.8397119074920435
 40
0.9043051311452787
 40
0.9043051311452787
 40
0.9366017429718962
 40
0.9366017429718962
 40
0.9527500488852052
 40
0.9527500488852052
 40
0.9688983547985142
 40
1.0
 40
1.0
 40
1.0
 40
1.0
 10
402.6638948357411
 20
184.7868724928842
 30
0.0
 10
402.6638948357411
 20
184.740139944956
 30
0.0
 10
402.6843788586595
 20
184.6639212429371
 30
0.0
 10
402.7627153912385
 20
184.4571125683657
 30
0.0
 10
402.8205779163589
 20
184.3265104385967
 30
0.0
 10
402.9710630839313
 20
184.0142547205003
 30
0.0
 10
403.0636920361872
 20
183.832593456269
 30
0.0
 10
403.1863913448982
 20
183.6008385069939
 30
0.0
 10
403.2002785267187
 20
183.5747134201487
 30
0.0
 10
403.2285073324997
 20
183.5218113251194
 30
0.0
 10
403.2715514532626
 20
183.4414439151678
 30
0.0
 10
403.3467447379041
 20
183.3024959693528
 30
0.0
 10
403.4104802857797
 20
183.1861392824876
 30
0.0
 10
403.4759587922943
 20
183.0672472132148
 30
0.0
 10
403.5095961810612
 20
183.0064859073298
 30
0.0
 10
403.6814618670962
 20
182.6975074424417
 30
0.0
 10
403.8309699773774
 20
182.4333029089919
 30
0.0
 10
404.150648857082
 20
181.8753710573451
 30
0.0
 10
404.3208319062352
 20
181.5816276201226
 30
0.0
 10
404.6794110565929
 20
180.9679156108201
 30
0.0
 10
404.8678145160761
 20
180.6479373425427
 30
0.0
 10
405.260980653848
 20
179.9842549083623
 30
0.0
 10
405.4657479731842
 20
179.64054460704
 30
0.0
 10
405.7045084850667
 20
179.2416096401475
 30
0.0
 10
405.7311584553029
 20
179.1971059983132
 30
0.0
 10
405.7846046209707
 20
179.1079026698228
 30
0.0
 10
405.8650238076205
 20
178.973752461299
 30
0.0
 10
406.0543875400875
 20
178.6583583543768
 30
0.0
 10
406.2195450112622
 20
178.3840764941515
 30
0.0
 10
406.5534158697609
 20
177.8305625497987
 30
0.0
 10
406.7807296569574
 20
177.4549632847365
 30
0.0
 10
407.2437827595338
 20
176.6919339110408
 30
0.0
 10
407.4795245728557
 20
176.3045006263533
 30
0.0
 10
407.9586265445871
 20
175.5188503890377
 30
0.0
 10
408.2019883556345
 20
175.1206313296891
 30
0.0
 10
408.695688729196
 20
174.3142415066197
 30
0.0
 10
408.9460284224754
 20
173.9060692985175
 30
0.0
 10
409.4531679130283
 20
173.0804418012519
 30
0.0
 10
409.7099685056034
 20
172.6629854949171
 30
0.0
 10
410.0996995122344
 20
172.030244768533
 30
0.0
 10
410.2303655520962
 20
171.8182375784954
 30
0.0
 10
410.4274642399481
 20
171.4986299180501
 30
0.0
 10
410.4933564429388
 20
171.3918127380226
 30
0.0
 10
410.625293138931
 20
171.177991441441
 30
0.0
 10
410.8186140726669
 20
170.8647762883024
 30
0.0
 10
411.012784859908
 20
170.5504302939429
 30
0.0
 10
411.1409495361285
 20
170.3430420555547
 30
0.0
  0
ENDSEC
  0
SECTION
  2
OBJECTS
  0
DICTIONARY
  5
C
330
0
100
AcDbDictionary
281
     1
  3
ACAD_DETAILVIEWSTYLE
350
205
  3
ACAD_GROUP
350
D
  3
ACAD_LAYOUT
350
1A
  3
ACAD_MATERIAL
350
43
  3
ACAD_MLEADERSTYLE
350
6B
  3
ACAD_MLINESTYLE
350
17
  3
ACAD_PLOTSETTINGS
350
19
  3
ACAD_PLOTSTYLENAME
350
E
  3
ACAD_SCALELIST
350
47
  3
ACAD_SECTIONVIEWSTYLE
350
206
  3
ACAD_TABLESTYLE
350
69
  3
ACAD_VISUALSTYLE
350
2A
  3
ACDB_RECOMPOSE_DATA
350
202
  3
AcDbVariableDictionary
350
1C2
  0
DICTIONARY
  5
1C0
330
8
100
AcDbDictionary
280
     1
281
     1
  3
ACAD_XREC_ROUNDTRIP
360
1C1
  0
DICTIONARY
  5
205
102
{ACAD_REACTORS
330
C
102
}
330
C
100
AcDbDictionary
281
     1
  0
DICTIONARY
  5
D
102
{ACAD_REACTORS
330
C
102
}
330
C
100
AcDbDictionary
281
     1
  0
DICTIONARY
  5
1A
102
{ACAD_REACTORS
330
C
102
}
330
C
100
AcDbDictionary
281
     1
  3
Layout1
350
1E
  3
Layout2
350
26
  3
Model
350
22
  0
DICTIONARY
  5
43
102
{ACAD_REACTORS
330
C
102
}
330
C
100
AcDbDictionary
281
     1
  3
ByBlock
350
45
  3
ByLayer
350
44
  3
Global
350
46
  0
DICTIONARY
  5
6B
102
{ACAD_REACTORS
330
C
102
}
330
C
100
AcDbDictionary
281
     1
  3
Standard
350
6C
  0
DICTIONARY
  5
17
102
{ACAD_REACTORS
330
C
102
}
330
C
100
AcDbDictionary
281
     1
  3
Standard
350
18
  0
DICTIONARY
  5
19
102
{ACAD_REACTORS
330
C
102
}
330
C
100
AcDbDictionary
281
     1
  0
ACDBDICTIONARYWDFLT
  5
E
102
{ACAD_REACTORS
330
C
102
}
330
C
100
AcDbDictionary
281
     1
  3
Normal
350
F
100
AcDbDictionaryWithDefault
340
F
  0
DICTIONARY
  5
47
102
{ACAD_REACTORS
330
C
102
}
330
C
100
AcDbDictionary
281
     1
  3
A0
350
48
  3
A1
350
49
  3
A2
350
4A
  3
A3
350
4B
  3
A4
350
4C
  3
A5
350
4D
  3
A6
350
4E
  3
A7
350
4F
  3
A8
350
50
  3
A9
350
51
  3
B0
350
52
  3
B1
350
53
  3
B2
350
54
  3
B3
350
55
  3
B4
350
56
  3
B5
350
57
  3
B6
350
58
  3
B7
350
59
  3
B8
350
5A
  3
B9
350
5B
  3
C0
350
5C
  3
C1
350
5D
  3
C2
350
5E
  3
C3
350
5F
  3
C4
350
60
  3
C5
350
61
  3
C6
350
62
  3
C7
350
63
  3
C8
350
64
  3
C9
350
65
  3
D0
350
66
  3
D1
350
67
  3
D2
350
68
  0
DICTIONARY
  5
206
102
{ACAD_REACTORS
330
C
102
}
330
C
100
AcDbDictionary
281
     1
  0
DICTIONARY
  5
69
102
{ACAD_REACTORS
330
C
102
}
330
C
100
AcDbDictionary
281
     1
  3
Standard
350
6A
  0
DICTIONARY
  5
2A
102
{ACAD_REACTORS
330
C
102
}
330
C
100
AcDbDictionary
281
     1
  3
2dWireframe
350
2F
  3
Basic
350
32
  3
Brighten
350
36
  3
ColorChange
350
3A
  3
Conceptual
350
34
  3
Dim
350
35
  3
EdgeColorOff
350
3D
  3
Facepattern
350
39
  3
Flat
350
2B
  3
FlatWithEdges
350
2C
  3
Gouraud
350
2D
  3
GouraudWithEdges
350
2E
  3
Hidden
350
31
  3
JitterOff
350
3B
  3
Linepattern
350
38
  3
OverhangOff
350
3C
  3
Realistic
350
33
  3
Shaded
350
42
  3
Shaded with edges
350
41
  3
Shades of Gray
350
3E
  3
Sketchy
350
3F
  3
Thicken
350
37
  3
Wireframe
350
30
  3
X-Ray
350
40
  0
XRECORD
  5
202
102
{ACAD_REACTORS
330
C
102
}
330
C
100
AcDbXrecord
280
     1
 90
        1
330
6A
  0
DICTIONARY
  5
1C2
102
{ACAD_REACTORS
330
C
102
}
330
C
100
AcDbDictionary
281
     1
  3
CANNOSCALE
350
1C3
  3
CMLEADERSTYLE
350
204
  3
CTABLESTYLE
350
203
  3
MSLTSCALE
350
1C4
  3
XCLIPFRAME
350
1C5
  0
XRECORD
  5
1C1
102
{ACAD_REACTORS
330
1C0
102
}
330
1C0
100
AcDbXrecord
280
     1
102
VTR_0.000_0.000_1.000_1.000_VISUALSTYLE
340
2F
102
VTR_0.000_0.000_1.000_1.000_GRIDDISPLAY
 70
     3
102
VTR_0.000_0.000_1.000_1.000_GRIDMAJOR
 70
     5
102
VTR_0.000_0.000_1.000_1.000_DEFAULTLIGHTING
280
     1
102
VTR_0.000_0.000_1.000_1.000_DEFAULTLIGHTINGTYPE
 70
     1
102
VTR_0.000_0.000_1.000_1.000_BRIGHTNESS
141
0.0
102
VTR_0.000_0.000_1.000_1.000_CONTRAST
142
0.0
102
VTR_0.000_0.000_0.500_1.000_VISUALSTYLE
340
2F
102
VTR_0.000_0.000_0.500_1.000_GRIDDISPLAY
 70
     3
102
VTR_0.000_0.000_0.500_1.000_GRIDMAJOR
 70
     5
102
VTR_0.000_0.000_0.500_1.000_DEFAULTLIGHTING
280
     1
102
VTR_0.000_0.000_0.500_1.000_DEFAULTLIGHTINGTYPE
 70
     1
102
VTR_0.000_0.000_0.500_1.000_BRIGHTNESS
141
0.0
102
VTR_0.000_0.000_0.500_1.000_CONTRAST
142
0.0
102
VTR_0.500_0.000_1.000_1.000_VISUALSTYLE
340
2F
102
VTR_0.500_0.000_1.000_1.000_GRIDDISPLAY
 70
     3
102
VTR_0.500_0.000_1.000_1.000_GRIDMAJOR
 70
     5
102
VTR_0.500_0.000_1.000_1.000_DEFAULTLIGHTING
280
     1
102
VTR_0.500_0.000_1.000_1.000_DEFAULTLIGHTINGTYPE
 70
     1
102
VTR_0.500_0.000_1.000_1.000_BRIGHTNESS
141
0.0
102
VTR_0.500_0.000_1.000_1.000_CONTRAST
142
0.0
102
VTR_0.000_0.500_1.000_1.000_VISUALSTYLE
340
2F
102
VTR_0.000_0.500_1.000_1.000_GRIDDISPLAY
 70
     3
102
VTR_0.000_0.500_1.000_1.000_GRIDMAJOR
 70
     5
102
VTR_0.000_0.500_1.000_1.000_DEFAULTLIGHTING
280
     1
102
VTR_0.000_0.500_1.000_1.000_DEFAULTLIGHTINGTYPE
 70
     1
102
VTR_0.000_0.500_1.000_1.000_BRIGHTNESS
141
0.0
102
VTR_0.000_0.500_1.000_1.000_CONTRAST
142
0.0
102
VTR_0.000_0.000_1.000_0.500_VISUALSTYLE
340
2F
102
VTR_0.000_0.000_1.000_0.500_GRIDDISPLAY
 70
     3
102
VTR_0.000_0.000_1.000_0.500_GRIDMAJOR
 70
     5
102
VTR_0.000_0.000_1.000_0.500_DEFAULTLIGHTING
280
     1
102
VTR_0.000_0.000_1.000_0.500_DEFAULTLIGHTINGTYPE
 70
     1
102
VTR_0.000_0.000_1.000_0.500_BRIGHTNESS
141
0.0
102
VTR_0.000_0.000_1.000_0.500_CONTRAST
142
0.0
102
VTR_0.000_0.500_0.500_1.000_VISUALSTYLE
340
2F
102
VTR_0.000_0.500_0.500_1.000_GRIDDISPLAY
 70
     3
102
VTR_0.000_0.500_0.500_1.000_GRIDMAJOR
 70
     5
102
VTR_0.000_0.500_0.500_1.000_DEFAULTLIGHTING
280
     1
102
VTR_0.000_0.500_0.500_1.000_DEFAULTLIGHTINGTYPE
 70
     1
102
VTR_0.000_0.500_0.500_1.000_BRIGHTNESS
141
0.0
102
VTR_0.000_0.500_0.500_1.000_CONTRAST
142
0.0
102
VTR_0.000_0.000_0.500_0.500_VISUALSTYLE
340
2F
102
VTR_0.000_0.000_0.500_0.500_GRIDDISPLAY
 70
     3
102
VTR_0.000_0.000_0.500_0.500_GRIDMAJOR
 70
     5
102
VTR_0.000_0.000_0.500_0.500_DEFAULTLIGHTING
280
     1
102
VTR_0.000_0.000_0.500_0.500_DEFAULTLIGHTINGTYPE
 70
     1
102
VTR_0.000_0.000_0.500_0.500_BRIGHTNESS
141
0.0
102
VTR_0.000_0.000_0.500_0.500_CONTRAST
142
0.0
102
VTR_0.500_0.000_1.000_0.500_VISUALSTYLE
340
2F
102
VTR_0.500_0.000_1.000_0.500_GRIDDISPLAY
 70
     3
102
VTR_0.500_0.000_1.000_0.500_GRIDMAJOR
 70
     5
102
VTR_0.500_0.000_1.000_0.500_DEFAULTLIGHTING
280
     1
102
VTR_0.500_0.000_1.000_0.500_DEFAULTLIGHTINGTYPE
 70
     1
102
VTR_0.500_0.000_1.000_0.500_BRIGHTNESS
141
0.0
102
VTR_0.500_0.000_1.000_0.500_CONTRAST
142
0.0
102
VTR_0.500_0.500_1.000_1.000_VISUALSTYLE
340
2F
102
VTR_0.500_0.500_1.000_1.000_GRIDDISPLAY
 70
     3
102
VTR_0.500_0.500_1.000_1.000_GRIDMAJOR
 70
     5
102
VTR_0.500_0.500_1.000_1.000_DEFAULTLIGHTING
280
     1
102
VTR_0.500_0.500_1.000_1.000_DEFAULTLIGHTINGTYPE
 70
     1
102
VTR_0.500_0.500_1.000_1.000_BRIGHTNESS
141
0.0
102
VTR_0.500_0.500_1.000_1.000_CONTRAST
142
0.0
102
VTR_0.000_0.500_0.333_1.000_VISUALSTYLE
340
2F
102
VTR_0.000_0.500_0.333_1.000_GRIDDISPLAY
 70
     3
102
VTR_0.000_0.500_0.333_1.000_GRIDMAJOR
 70
     5
102
VTR_0.000_0.500_0.333_1.000_DEFAULTLIGHTING
280
     1
102
VTR_0.000_0.500_0.333_1.000_DEFAULTLIGHTINGTYPE
 70
     1
102
VTR_0.000_0.500_0.333_1.000_BRIGHTNESS
141
0.0
102
VTR_0.000_0.500_0.333_1.000_CONTRAST
142
0.0
102
VTR_0.000_0.000_0.333_0.500_VISUALSTYLE
340
2F
102
VTR_0.000_0.000_0.333_0.500_GRIDDISPLAY
 70
     3
102
VTR_0.000_0.000_0.333_0.500_GRIDMAJOR
 70
     5
102
VTR_0.000_0.000_0.333_0.500_DEFAULTLIGHTING
280
     1
102
VTR_0.000_0.000_0.333_0.500_DEFAULTLIGHTINGTYPE
 70
     1
102
VTR_0.000_0.000_0.333_0.500_BRIGHTNESS
141
0.0
102
VTR_0.000_0.000_0.333_0.500_CONTRAST
142
0.0
102
VTR_0.333_0.500_0.667_1.000_VISUALSTYLE
340
2F
102
VTR_0.333_0.500_0.667_1.000_GRIDDISPLAY
 70
     3
102
VTR_0.333_0.500_0.667_1.000_GRIDMAJOR
 70
     5
102
VTR_0.333_0.500_0.667_1.000_DEFAULTLIGHTING
280
     1
102
VTR_0.333_0.500_0.667_1.000_DEFAULTLIGHTINGTYPE
 70
     1
102
VTR_0.333_0.500_0.667_1.000_BRIGHTNESS
141
0.0
102
VTR_0.333_0.500_0.667_1.000_CONTRAST
142
0.0
102
VTR_0.333_0.000_0.667_0.500_VISUALSTYLE
340
2F
102
VTR_0.333_0.000_0.667_0.500_GRIDDISPLAY
 70
     3
102
VTR_0.333_0.000_0.667_0.500_GRIDMAJOR
 70
     5
102
VTR_0.333_0.000_0.667_0.500_DEFAULTLIGHTING
280
     1
102
VTR_0.333_0.000_0.667_0.500_DEFAULTLIGHTINGTYPE
 70
     1
102
VTR_0.333_0.000_0.667_0.500_BRIGHTNESS
141
0.0
102
VTR_0.333_0.000_0.667_0.500_CONTRAST
142
0.0
102
VTR_0.667_0.500_1.000_1.000_VISUALSTYLE
340
2F
102
VTR_0.667_0.500_1.000_1.000_GRIDDISPLAY
 70
     3
102
VTR_0.667_0.500_1.000_1.000_GRIDMAJOR
 70
     5
102
VTR_0.667_0.500_1.000_1.000_DEFAULTLIGHTING
280
     1
102
VTR_0.667_0.500_1.000_1.000_DEFAULTLIGHTINGTYPE
 70
     1
102
VTR_0.667_0.500_1.000_1.000_BRIGHTNESS
141
0.0
102
VTR_0.667_0.500_1.000_1.000_CONTRAST
142
0.0
102
VTR_0.667_0.000_1.000_0.500_VISUALSTYLE
340
2F
102
VTR_0.667_0.000_1.000_0.500_GRIDDISPLAY
 70
     3
102
VTR_0.667_0.000_1.000_0.500_GRIDMAJOR
 70
     5
102
VTR_0.667_0.000_1.000_0.500_DEFAULTLIGHTING
280
     1
102
VTR_0.667_0.000_1.000_0.500_DEFAULTLIGHTINGTYPE
 70
     1
102
VTR_0.667_0.000_1.000_0.500_BRIGHTNESS
141
0.0
102
VTR_0.667_0.000_1.000_0.500_CONTRAST
142
0.0
  0
LAYOUT
  5
1E
102
{ACAD_REACTORS
330
1A
102
}
330
1A
100
AcDbPlotSettings
  1

  2
none_device
  4

  6

 40
0.0
 41
0.0
 42
0.0
 43
0.0
 44
0.0
 45
0.0
 46
0.0
 47
0.0
 48
0.0
 49
0.0
140
0.0
141
0.0
142
1.0
143
1.0
 70
   688
 72
     0
 73
     0
 74
     5
  7

 75
    16
 76
     0
 77
     2
 78
   300
147
1.0
148
0.0
149
0.0
100
AcDbLayout
  1
Layout1
 70
     1
 71
     1
 10
-0.5
 20
-0.5
 11
5.0
 21
5.0
 12
0.0
 22
0.0
 32
0.0
 14
-0.5
 24
-0.5
 34
-0.5
 15
5.0
 25
5.0
 35
5.0
146
0.0
 13
0.0
 23
0.0
 33
0.0
 16
1.0
 26
0.0
 36
0.0
 17
0.0
 27
1.0
 37
0.0
 76
     0
330
1B
  0
LAYOUT
  5
26
102
{ACAD_REACTORS
330
1A
102
}
330
1A
100
AcDbPlotSettings
  1

  2
none_device
  4

  6

 40
0.0
 41
0.0
 42
0.0
 43
0.0
 44
0.0
 45
0.0
 46
0.0
 47
0.0
 48
0.0
 49
0.0
140
0.0
141
0.0
142
1.0
143
1.0
 70
   688
 72
     0
 73
     0
 74
     5
  7

 75
    16
 76
     0
 77
     2
 78
   300
147
1.0
148
0.0
149
0.0
100
AcDbLayout
  1
Layout2
 70
     1
 71
     2
 10
0.0
 20
0.0
 11
0.0
 21
0.0
 12
0.0
 22
0.0
 32
0.0
 14
0.0
 24
0.0
 34
0.0
 15
0.0
 25
0.0
 35
0.0
146
0.0
 13
0.0
 23
0.0
 33
0.0
 16
1.0
 26
0.0
 36
0.0
 17
0.0
 27
1.0
 37
0.0
 76
     0
330
23
  0
LAYOUT
  5
22
102
{ACAD_REACTORS
330
1A
102
}
330
1A
100
AcDbPlotSettings
  1

  2
none_device
  4
Letter_(8.50_x_11.00_Inches)
  6

 40
6.35
 41
6.35
 42
6.350005
 43
6.350005
 44
215.9
 45
279.4
 46
0.0
 47
0.0
 48
0.0
 49
0.0
140
0.0
141
0.0
142
1.0
143
1.0
 70
  1712
 72
     0
 73
     0
 74
     0
  7

 75
     0
 76
     0
 77
     2
 78
   300
147
1.0
148
0.0
149
0.0
100
AcDbLayout
  1
Model
 70
     1
 71
     0
 10
-0.5
 20
-0.5
 11
5.0
 21
5.0
 12
0.0
 22
0.0
 32
0.0
 14
-0.5
 24
-0.5
 34
-0.5
 15
5.0
 25
5.0
 35
5.0
146
0.0
 13
0.0
 23
0.0
 33
0.0
 16
1.0
 26
0.0
 36
0.0
 17
0.0
 27
1.0
 37
0.0
 76
     0
330
1F
331
29
  0
MATERIAL
  5
45
102
{ACAD_REACTORS
330
43
102
}
102
{ACAD_XDICTIONARY
360
1F8
102
}
330
43
100
AcDbMaterial
  1
ByBlock
  0
MATERIAL
  5
44
102
{ACAD_REACTORS
330
43
102
}
102
{ACAD_XDICTIONARY
360
1F6
102
}
330
43
100
AcDbMaterial
  1
ByLayer
  0
MATERIAL
  5
46
102
{ACAD_REACTORS
330
43
102
}
102
{ACAD_XDICTIONARY
360
1FA
102
}
330
43
100
AcDbMaterial
  1
Global
  0
MLEADERSTYLE
  5
6C
102
{ACAD_REACTORS
330
6B
102
}
102
{ACAD_XDICTIONARY
360
200
102
}
330
6B
100
AcDbMLeaderStyle
170
     2
171
     1
172
     0
 90
        2
 40
0.0
 41
0.0
173
     1
 91
-1056964608
340
14
 92
       -2
290
     1
 42
0.09
291
     1
 43
0.36
  3
Standard
341
0
 44
0.18
300

342
11
174
     1
178
     6
175
     1
176
     0
 93
-1056964608
 45
0.18
292
     0
297
     0
 46
0.18
343
0
 94
-1056964608
 47
1.0
 49
1.0
140
1.0
293
     1
141
0.0
294
     1
177
     0
142
1.0
295
     0
296
     0
143
0.125
1001
ACAD_MLEADERVER
1070
     2
  0
MLINESTYLE
  5
18
102
{ACAD_REACTORS
330
17
102
}
330
17
100
AcDbMlineStyle
  2
Standard
 70
     0
  3

 62
   256
 51
90.0
 52
90.0
 71
     2
 49
0.5
 62
   256
  6
BYLAYER
 49
-0.5
 62
   256
  6
BYLAYER
  0
ACDBPLACEHOLDER
  5
F
102
{ACAD_REACTORS
330
E
102
}
330
E
  0
SCALE
  5
48
102
{ACAD_REACTORS
330
47
102
}
330
47
100
AcDbScale
 70
     0
300
1:1
140
1.0
141
1.0
290
     1
  0
SCALE
  5
49
102
{ACAD_REACTORS
330
47
102
}
330
47
100
AcDbScale
 70
     0
300
1:2
140
1.0
141
2.0
290
     0
  0
SCALE
  5
4A
102
{ACAD_REACTORS
330
47
102
}
330
47
100
AcDbScale
 70
     0
300
1:4
140
1.0
141
4.0
290
     0
  0
SCALE
  5
4B
102
{ACAD_REACTORS
330
47
102
}
330
47
100
AcDbScale
 70
     0
300
1:5
140
1.0
141
5.0
290
     0
  0
SCALE
  5
4C
102
{ACAD_REACTORS
330
47
102
}
330
47
100
AcDbScale
 70
     0
300
1:8
140
1.0
141
8.0
290
     0
  0
SCALE
  5
4D
102
{ACAD_REACTORS
330
47
102
}
330
47
100
AcDbScale
 70
     0
300
1:10
140
1.0
141
10.0
290
     0
  0
SCALE
  5
4E
102
{ACAD_REACTORS
330
47
102
}
330
47
100
AcDbScale
 70
     0
300
1:16
140
1.0
141
16.0
290
     0
  0
SCALE
  5
4F
102
{ACAD_REACTORS
330
47
102
}
330
47
100
AcDbScale
 70
     0
300
1:20
140
1.0
141
20.0
290
     0
  0
SCALE
  5
50
102
{ACAD_REACTORS
330
47
102
}
330
47
100
AcDbScale
 70
     0
300
1:30
140
1.0
141
30.0
290
     0
  0
SCALE
  5
51
102
{ACAD_REACTORS
330
47
102
}
330
47
100
AcDbScale
 70
     0
300
1:40
140
1.0
141
40.0
290
     0
  0
SCALE
  5
52
102
{ACAD_REACTORS
330
47
102
}
330
47
100
AcDbScale
 70
     0
300
1:50
140
1.0
141
50.0
290
     0
  0
SCALE
  5
53
102
{ACAD_REACTORS
330
47
102
}
330
47
100
AcDbScale
 70
     0
300
1:100
140
1.0
141
100.0
290
     0
  0
SCALE
  5
54
102
{ACAD_REACTORS
330
47
102
}
330
47
100
AcDbScale
 70
     0
300
2:1
140
2.0
141
1.0
290
     0
  0
SCALE
  5
55
102
{ACAD_REACTORS
330
47
102
}
330
47
100
AcDbScale
 70
     0
300
4:1
140
4.0
141
1.0
290
     0
  0
SCALE
  5
56
102
{ACAD_REACTORS
330
47
102
}
330
47
100
AcDbScale
 70
     0
300
8:1
140
8.0
141
1.0
290
     0
  0
SCALE
  5
57
102
{ACAD_REACTORS
330
47
102
}
330
47
100
AcDbScale
 70
     0
300
10:1
140
10.0
141
1.0
290
     0
  0
SCALE
  5
58
102
{ACAD_REACTORS
330
47
102
}
330
47
100
AcDbScale
 70
     0
300
100:1
140
100.0
141
1.0
290
     0
  0
SCALE
  5
59
102
{ACAD_REACTORS
330
47
102
}
330
47
100
AcDbScale
 70
     0
300
1/128" = 1'-0"
140
0.007812
141
12.0
290
     0
  0
SCALE
  5
5A
102
{ACAD_REACTORS
330
47
102
}
330
47
100
AcDbScale
 70
     0
300
1/64" = 1'-0"
140
0.015625
141
12.0
290
     0
  0
SCALE
  5
5B
102
{ACAD_REACTORS
330
47
102
}
330
47
100
AcDbScale
 70
     0
300
1/32" = 1'-0"
140
0.03125
141
12.0
290
     0
  0
SCALE
  5
5C
102
{ACAD_REACTORS
330
47
102
}
330
47
100
AcDbScale
 70
     0
300
1/16" = 1'-0"
140
0.0625
141
12.0
290
     0
  0
SCALE
  5
5D
102
{ACAD_REACTORS
330
47
102
}
330
47
100
AcDbScale
 70
     0
300
3/32" = 1'-0"
140
0.09375
141
12.0
290
     0
  0
SCALE
  5
5E
102
{ACAD_REACTORS
330
47
102
}
330
47
100
AcDbScale
 70
     0
300
1/8" = 1'-0"
140
0.125
141
12.0
290
     0
  0
SCALE
  5
5F
102
{ACAD_REACTORS
330
47
102
}
330
47
100
AcDbScale
 70
     0
300
3/16" = 1'-0"
140
0.1875
141
12.0
290
     0
  0
SCALE
  5
60
102
{ACAD_REACTORS
330
47
102
}
330
47
100
AcDbScale
 70
     0
300
1/4" = 1'-0"
140
0.25
141
12.0
290
     0
  0
SCALE
  5
61
102
{ACAD_REACTORS
330
47
102
}
330
47
100
AcDbScale
 70
     0
300
3/8" = 1'-0"
140
0.375
141
12.0
290
     0
  0
SCALE
  5
62
102
{ACAD_REACTORS
330
47
102
}
330
47
100
AcDbScale
 70
     0
300
1/2" = 1'-0"
140
0.5
141
12.0
290
     0
  0
SCALE
  5
63
102
{ACAD_REACTORS
330
47
102
}
330
47
100
AcDbScale
 70
     0
300
3/4" = 1'-0"
140
0.75
141
12.0
290
     0
  0
SCALE
  5
64
102
{ACAD_REACTORS
330
47
102
}
330
47
100
AcDbScale
 70
     0
300
1" = 1'-0"
140
1.0
141
12.0
290
     0
  0
SCALE
  5
65
102
{ACAD_REACTORS
330
47
102
}
330
47
100
AcDbScale
 70
     0
300
1-1/2" = 1'-0"
140
1.5
141
12.0
290
     0
  0
SCALE
  5
66
102
{ACAD_REACTORS
330
47
102
}
330
47
100
AcDbScale
 70
     0
300
3" = 1'-0"
140
3.0
141
12.0
290
     0
  0
SCALE
  5
67
102
{ACAD_REACTORS
330
47
102
}
330
47
100
AcDbScale
 70
     0
300
6" = 1'-0"
140
6.0
141
12.0
290
     0
  0
SCALE
  5
68
102
{ACAD_REACTORS
330
47
102
}
330
47
100
AcDbScale
 70
     0
300
1'-0" = 1'-0"
140
12.0
141
12.0
290
     0
  0
TABLESTYLE
  5
6A
102
{ACAD_REACTORS
330
69
102
}
102
{ACAD_XDICTIONARY
360
1FC
102
}
330
69
100
AcDbTableStyle
  3
Standard
 70
     0
 71
     0
 40
0.06
 41
0.06
280
     0
281
     0
  7
Standard
140
0.18
170
     2
 62
     0
 63
   257
283
     0
274
    -2
284
     1
 64
     0
275
    -2
285
     1
 65
     0
276
    -2
286
     1
 66
     0
277
    -2
287
     1
 67
     0
278
    -2
288
     1
 68
     0
279
    -2
289
     1
 69
     0
  7
Standard
140
0.25
170
     5
 62
     0
 63
   257
283
     0
274
    -2
284
     1
 64
     0
275
    -2
285
     1
 65
     0
276
    -2
286
     1
 66
     0
277
    -2
287
     1
 67
     0
278
    -2
288
     1
 68
     0
279
    -2
289
     1
 69
     0
  7
Standard
140
0.18
170
     5
 62
     0
 63
   257
283
     0
274
    -2
284
     1
 64
     0
275
    -2
285
     1
 65
     0
276
    -2
286
     1
 66
     0
277
    -2
287
     1
 67
     0
278
    -2
288
     1
 68
     0
279
    -2
289
     1
 69
     0
  0
VISUALSTYLE
  5
2F
102
{ACAD_REACTORS
330
2A
102
}
102
{ACAD_XDICTIONARY
360
1CE
102
}
330
2A
100
AcDbVisualStyle
  2
2dWireframe
 70
     4
 71
     0
 72
     2
 73
     0
 90
        0
 40
0.6
 41
30.0
 62
     5
 63
     7
421
 16777215
 74
     1
 91
        4
 64
     7
 65
   257
 75
     1
175
     1
 42
1.0
 92
        0
 66
   257
 43
1.0
 76
     1
 77
     6
 78
     2
 67
     7
 79
     5
170
     0
171
     0
290
     0
174
     0
 93
        1
 44
0.0
173
     0
291
     0
 45
0.0
1001
ACAD
1000
AcDbSavedByObjectVersion
1070
     0
  0
VISUALSTYLE
  5
32
102
{ACAD_REACTORS
330
2A
102
}
102
{ACAD_XDICTIONARY
360
1D4
102
}
330
2A
100
AcDbVisualStyle
  2
Basic
 70
     7
 71
     1
 72
     0
 73
     1
 90
        0
 40
0.6
 41
30.0
 62
     5
 63
     7
421
 16777215
 74
     0
 91
        4
 64
     7
 65
   257
 75
     1
175
     1
 42
1.0
 92
        8
 66
     7
 43
1.0
 76
     1
 77
     6
 78
     2
 67
     7
 79
     5
170
     0
171
     0
290
     0
174
     0
 93
        1
 44
0.0
173
     0
291
     1
 45
0.0
1001
ACAD
1000
AcDbSavedByObjectVersion
1070
     0
  0
VISUALSTYLE
  5
36
102
{ACAD_REACTORS
330
2A
102
}
102
{ACAD_XDICTIONARY
360
1DC
102
}
330
2A
100
AcDbVisualStyle
  2
Brighten
 70
    12
 71
     2
 72
     2
 73
     0
 90
        0
 40
0.6
 41
30.0
 62
     5
 63
     7
421
 16777215
 74
     1
 91
        4
 64
     7
 65
   257
 75
     1
175
     1
 42
1.0
 92
        8
 66
     7
 43
1.0
 76
     1
 77
     6
 78
     2
 67
     7
 79
     5
170
     0
171
     0
290
     0
174
     0
 93
        1
 44
50.0
173
     0
291
     1
 45
0.0
1001
ACAD
1000
AcDbSavedByObjectVersion
1070
     0
  0
VISUALSTYLE
  5
3A
102
{ACAD_REACTORS
330
2A
102
}
102
{ACAD_XDICTIONARY
360
1E4
102
}
330
2A
100
AcDbVisualStyle
  2
ColorChange
 70
    16
 71
     2
 72
     2
 73
     3
 90
        0
 40
0.6
 41
30.0
 62
     5
 63
     8
421
  8421504
 74
     1
 91
        4
 64
     7
 65
   257
 75
     1
175
     1
 42
1.0
 92
        8
 66
     8
424
  8421504
 43
1.0
 76
     1
 77
     6
 78
     2
 67
     7
 79
     5
170
     0
171
     0
290
     0
174
     0
 93
        1
 44
0.0
173
     0
291
     1
 45
0.0
1001
ACAD
1000
AcDbSavedByObjectVersion
1070
     0
  0
VISUALSTYLE
  5
34
102
{ACAD_REACTORS
330
2A
102
}
102
{ACAD_XDICTIONARY
360
1D8
102
}
330
2A
100
AcDbVisualStyle
  2
Conceptual
 70
     9
 71
     3
 72
     2
 73
     0
 90
        0
 40
0.6
 41
30.0
 62
     5
 63
     7
421
 16777215
 74
     2
 91
        2
 64
     7
 65
   257
 75
     1
175
     1
 42
179.0
 92
        8
 66
     7
 43
1.0
 76
     1
 77
     6
 78
     2
 67
     7
 79
     3
170
     0
171
     0
290
     0
174
     0
 93
        1
 44
0.0
173
     0
291
     0
 45
0.0
1001
ACAD
1000
AcDbSavedByObjectVersion
1070
     0
  0
VISUALSTYLE
  5
35
102
{ACAD_REACTORS
330
2A
102
}
102
{ACAD_XDICTIONARY
360
1DA
102
}
330
2A
100
AcDbVisualStyle
  2
Dim
 70
    11
 71
     2
 72
     2
 73
     0
 90
        0
 40
0.6
 41
30.0
 62
     5
 63
     7
421
 16777215
 74
     1
 91
        4
 64
     7
 65
   257
 75
     1
175
     1
 42
1.0
 92
        8
 66
     7
 43
1.0
 76
     1
 77
     6
 78
     2
 67
     7
 79
     5
170
     0
171
     0
290
     0
174
     0
 93
        1
 44
-50.0
173
     0
291
     1
 45
0.0
1001
ACAD
1000
AcDbSavedByObjectVersion
1070
     0
  0
VISUALSTYLE
  5
3D
102
{ACAD_REACTORS
330
2A
102
}
102
{ACAD_XDICTIONARY
360
1EA
102
}
330
2A
100
AcDbVisualStyle
  2
EdgeColorOff
 70
    22
 71
     2
 72
     2
 73
     0
 90
        0
 40
0.6
 41
30.0
 62
     5
 63
     7
421
 16777215
 74
     1
 91
        4
 64
     7
 65
   257
 75
     1
175
     1
 42
1.0
 92
        8
 66
     7
 43
1.0
 76
     1
 77
     6
 78
     2
 67
     7
 79
     5
170
     0
171
     0
290
     0
174
     0
 93
        1
 44
0.0
173
     0
291
     1
 45
0.0
1001
ACAD
1000
AcDbSavedByObjectVersion
1070
     0
  0
VISUALSTYLE
  5
39
102
{ACAD_REACTORS
330
2A
102
}
102
{ACAD_XDICTIONARY
360
1E2
102
}
330
2A
100
AcDbVisualStyle
  2
Facepattern
 70
    15
 71
     2
 72
     2
 73
     0
 90
        0
 40
0.6
 41
30.0
 62
     5
 63
     7
421
 16777215
 74
     1
 91
        4
 64
     7
 65
   257
 75
     1
175
     1
 42
1.0
 92
        8
 66
     7
 43
1.0
 76
     1
 77
     6
 78
     2
 67
     7
 79
     5
170
     0
171
     0
290
     0
174
     0
 93
        1
 44
0.0
173
     0
291
     1
 45
0.0
1001
ACAD
1000
AcDbSavedByObjectVersion
1070
     0
  0
VISUALSTYLE
  5
2B
102
{ACAD_REACTORS
330
2A
102
}
102
{ACAD_XDICTIONARY
360
1C6
102
}
330
2A
100
AcDbVisualStyle
  2
Flat
 70
     0
 71
     2
 72
     1
 73
     1
 90
        2
 40
0.6
 41
30.0
 62
     5
 63
     7
421
 16777215
 74
     0
 91
        0
 64
     7
 65
   257
 75
     1
175
     1
 42
1.0
 92
        8
 66
     7
 43
1.0
 76
     1
 77
     6
 78
     2
 67
     7
 79
     5
170
     0
171
     0
290
     0
174
     0
 93
       13
 44
0.0
173
     0
291
     1
 45
0.0
1001
ACAD
1000
AcDbSavedByObjectVersion
1070
     0
  0
VISUALSTYLE
  5
2C
102
{ACAD_REACTORS
330
2A
102
}
102
{ACAD_XDICTIONARY
360
1C8
102
}
330
2A
100
AcDbVisualStyle
  2
FlatWithEdges
 70
     1
 71
     2
 72
     1
 73
     1
 90
        2
 40
0.6
 41
30.0
 62
     5
 63
     7
421
 16777215
 74
     1
 91
        0
 64
     7
 65
   257
 75
     1
175
     1
 42
1.0
 92
        0
 66
   257
 43
1.0
 76
     1
 77
     6
 78
     2
 67
     7
 79
     5
170
     0
171
     0
290
     0
174
     0
 93
       13
 44
0.0
173
     0
291
     1
 45
0.0
1001
ACAD
1000
AcDbSavedByObjectVersion
1070
     0
  0
VISUALSTYLE
  5
2D
102
{ACAD_REACTORS
330
2A
102
}
102
{ACAD_XDICTIONARY
360
1CA
102
}
330
2A
100
AcDbVisualStyle
  2
Gouraud
 70
     2
 71
     2
 72
     2
 73
     1
 90
        2
 40
0.6
 41
30.0
 62
     5
 63
     7
421
 16777215
 74
     0
 91
        0
 64
     7
 65
   257
 75
     1
175
     1
 42
1.0
 92
        0
 66
     7
 43
1.0
 76
     1
 77
     6
 78
     2
 67
     7
 79
     5
170
     0
171
     0
290
     0
174
     0
 93
       13
 44
0.0
173
     0
291
     1
 45
0.0
1001
ACAD
1000
AcDbSavedByObjectVersion
1070
     0
  0
VISUALSTYLE
  5
2E
102
{ACAD_REACTORS
330
2A
102
}
102
{ACAD_XDICTIONARY
360
1CC
102
}
330
2A
100
AcDbVisualStyle
  2
GouraudWithEdges
 70
     3
 71
     2
 72
     2
 73
     1
 90
        2
 40
0.6
 41
30.0
 62
     5
 63
     7
421
 16777215
 74
     1
 91
        0
 64
     7
 65
   257
 75
     1
175
     1
 42
1.0
 92
        0
 66
   257
 43
1.0
 76
     1
 77
     6
 78
     2
 67
     7
 79
     5
170
     0
171
     0
290
     0
174
     0
 93
       13
 44
0.0
173
     0
291
     1
 45
0.0
1001
ACAD
1000
AcDbSavedByObjectVersion
1070
     0
  0
VISUALSTYLE
  5
31
102
{ACAD_REACTORS
330
2A
102
}
102
{ACAD_XDICTIONARY
360
1D2
102
}
330
2A
100
AcDbVisualStyle
  2
Hidden
 70
     6
 71
     1
 72
     2
 73
     2
 90
        0
 40
0.6
 41
30.0
 62
     5
 63
     7
421
 16777215
 74
     2
 91
        2
 64
     7
 65
   257
 75
     2
175
     1
 42
40.0
 92
        0
 66
   257
 43
1.0
 76
     1
 77
     6
 78
     2
 67
     7
 79
     3
170
     0
171
     0
290
     0
174
     0
 93
        1
 44
0.0
173
     0
291
     0
 45
0.0
1001
ACAD
1000
AcDbSavedByObjectVersion
1070
     0
  0
VISUALSTYLE
  5
3B
102
{ACAD_REACTORS
330
2A
102
}
102
{ACAD_XDICTIONARY
360
1E6
102
}
330
2A
100
AcDbVisualStyle
  2
JitterOff
 70
    20
 71
     2
 72
     2
 73
     0
 90
        0
 40
0.6
 41
30.0
 62
     5
 63
     7
421
 16777215
 74
     1
 91
        4
 64
     7
 65
   257
 75
     1
175
     1
 42
1.0
 92
       10
 66
     7
 43
1.0
 76
     1
 77
     6
 78
     2
 67
     7
 79
     5
170
     0
171
     0
290
     0
174
     0
 93
        1
 44
0.0
173
     0
291
     1
 45
0.0
1001
ACAD
1000
AcDbSavedByObjectVersion
1070
     0
  0
VISUALSTYLE
  5
38
102
{ACAD_REACTORS
330
2A
102
}
102
{ACAD_XDICTIONARY
360
1E0
102
}
330
2A
100
AcDbVisualStyle
  2
Linepattern
 70
    14
 71
     2
 72
     2
 73
     0
 90
        0
 40
0.6
 41
30.0
 62
     5
 63
     7
421
 16777215
 74
     1
 91
        4
 64
     7
 65
   257
 75
     7
175
     7
 42
1.0
 92
        8
 66
     7
 43
1.0
 76
     1
 77
     6
 78
     2
 67
     7
 79
     5
170
     0
171
     0
290
     0
174
     0
 93
        1
 44
0.0
173
     0
291
     1
 45
0.0
1001
ACAD
1000
AcDbSavedByObjectVersion
1070
     0
  0
VISUALSTYLE
  5
3C
102
{ACAD_REACTORS
330
2A
102
}
102
{ACAD_XDICTIONARY
360
1E8
102
}
330
2A
100
AcDbVisualStyle
  2
OverhangOff
 70
    21
 71
     2
 72
     2
 73
     0
 90
        0
 40
0.6
 41
30.0
 62
     5
 63
     7
421
 16777215
 74
     1
 91
        4
 64
     7
 65
   257
 75
     1
175
     1
 42
1.0
 92
        9
 66
     7
 43
1.0
 76
     1
 77
     6
 78
     2
 67
     7
 79
     5
170
     0
171
     0
290
     0
174
     0
 93
        1
 44
0.0
173
     0
291
     1
 45
0.0
1001
ACAD
1000
AcDbSavedByObjectVersion
1070
     0
  0
VISUALSTYLE
  5
33
102
{ACAD_REACTORS
330
2A
102
}
102
{ACAD_XDICTIONARY
360
1D6
102
}
330
2A
100
AcDbVisualStyle
  2
Realistic
 70
     8
 71
     2
 72
     3
 73
     0
 90
        2
 40
0.6
 41
30.0
 62
     5
 63
     7
421
 16777215
 74
     0
 91
        0
 64
     7
 65
   257
 75
     1
175
     1
 42
1.0
 92
        8
 66
   257
 43
1.0
 76
     1
 77
     6
 78
     2
 67
     7
 79
     3
170
     0
171
     0
290
     0
174
     0
 93
       13
 44
0.0
173
     0
291
     0
 45
0.0
1001
ACAD
1000
AcDbSavedByObjectVersion
1070
     0
  0
VISUALSTYLE
  5
42
102
{ACAD_REACTORS
330
2A
102
}
102
{ACAD_XDICTIONARY
360
1F4
102
}
330
2A
100
AcDbVisualStyle
  2
Shaded
 70
    27
 71
     2
 72
     2
 73
     1
 90
        2
 40
0.6
 41
30.0
 62
     5
 63
     7
421
 16777215
 74
     0
 91
        4
 64
     7
 65
   257
 75
     1
175
     1
 42
1.0
 92
        8
 66
   257
 43
1.0
 76
     1
 77
     6
 78
     2
 67
     8
425
  7895160
 79
     3
170
     0
171
     0
290
     0
174
     0
 93
        5
 44
0.0
173
     0
291
     0
 45
0.0
1001
ACAD
1000
AcDbSavedByObjectVersion
1070
     0
  0
VISUALSTYLE
  5
41
102
{ACAD_REACTORS
330
2A
102
}
102
{ACAD_XDICTIONARY
360
1F2
102
}
330
2A
100
AcDbVisualStyle
  2
Shaded with edges
 70
    26
 71
     2
 72
     2
 73
     1
 90
        2
 40
0.6
 41
30.0
 62
     5
 63
     7
421
 16777215
 74
     1
 91
       10
 64
     7
 65
   257
 75
     2
175
     1
 42
1.0
 92
        8
 66
   257
 43
1.0
 76
     1
 77
     6
 78
     2
 67
     7
 79
     3
170
     0
171
     0
290
     0
174
     0
 93
        5
 44
0.0
173
     0
291
     0
 45
0.0
1001
ACAD
1000
AcDbSavedByObjectVersion
1070
     0
  0
VISUALSTYLE
  5
3E
102
{ACAD_REACTORS
330
2A
102
}
102
{ACAD_XDICTIONARY
360
1EC
102
}
330
2A
100
AcDbVisualStyle
  2
Shades of Gray
 70
    23
 71
     2
 72
     2
 73
     3
 90
        0
 40
0.6
 41
30.0
 62
     5
 63
     7
421
 16777215
 74
     2
 91
        2
 64
     7
 65
     7
 75
     1
175
     1
 42
40.0
 92
        8
 66
     7
 43
1.0
 76
     1
 77
     6
 78
     2
 67
     7
 79
     3
170
     0
171
     0
290
     0
174
     0
 93
        1
 44
0.0
173
     0
291
     0
 45
0.0
1001
ACAD
1000
AcDbSavedByObjectVersion
1070
     0
  0
VISUALSTYLE
  5
3F
102
{ACAD_REACTORS
330
2A
102
}
102
{ACAD_XDICTIONARY
360
1EE
102
}
330
2A
100
AcDbVisualStyle
  2
Sketchy
 70
    24
 71
     1
 72
     2
 73
     2
 90
        0
 40
0.6
 41
30.0
 62
     5
 63
     7
421
 16777215
 74
     2
 91
        2
 64
     7
 65
     7
 75
     1
175
     1
 42
40.0
 92
       11
 66
     7
 43
1.0
 76
     1
 77
     6
 78
     2
 67
     7
 79
     6
170
     0
171
     0
290
     0
174
     0
 93
        1
 44
0.0
173
     0
291
     0
 45
0.0
1001
ACAD
1000
AcDbSavedByObjectVersion
1070
     0
  0
VISUALSTYLE
  5
37
102
{ACAD_REACTORS
330
2A
102
}
102
{ACAD_XDICTIONARY
360
1DE
102
}
330
2A
100
AcDbVisualStyle
  2
Thicken
 70
    13
 71
     2
 72
     2
 73
     0
 90
        0
 40
0.6
 41
30.0
 62
     5
 63
     7
421
 16777215
 74
     1
 91
        4
 64
     7
 65
   257
 75
     1
175
     1
 42
1.0
 92
       12
 66
     7
 43
1.0
 76
     1
 77
     6
 78
     2
 67
     7
 79
     5
170
     0
171
     0
290
     0
174
     0
 93
        1
 44
0.0
173
     0
291
     1
 45
0.0
1001
ACAD
1000
AcDbSavedByObjectVersion
1070
     0
  0
VISUALSTYLE
  5
30
102
{ACAD_REACTORS
330
2A
102
}
102
{ACAD_XDICTIONARY
360
1D0
102
}
330
2A
100
AcDbVisualStyle
  2
Wireframe
 70
     5
 71
     0
 72
     2
 73
     0
 90
        0
 40
0.6
 41
30.0
 62
     5
 63
     7
421
 16777215
 74
     1
 91
        4
 64
     7
 65
   257
 75
     1
175
     1
 42
1.0
 92
        0
 66
   257
 43
1.0
 76
     1
 77
     6
 78
     2
 67
     7
 79
     3
170
     0
171
     0
290
     0
174
     0
 93
        1
 44
0.0
173
     0
291
     0
 45
0.0
1001
ACAD
1000
AcDbSavedByObjectVersion
1070
     0
  0
VISUALSTYLE
  5
40
102
{ACAD_REACTORS
330
2A
102
}
102
{ACAD_XDICTIONARY
360
1F0
102
}
330
2A
100
AcDbVisualStyle
  2
X-Ray
 70
    25
 71
     2
 72
     2
 73
     1
 90
        1
 40
0.5
 41
30.0
 62
     5
 63
     7
421
 16777215
 74
     1
 91
        0
 64
     7
 65
   257
 75
     1
175
     1
 42
1.0
 92
        8
 66
     7
 43
1.0
 76
     1
 77
     6
 78
     2
 67
     7
 79
     3
170
     0
171
     0
290
     0
174
     0
 93
       13
 44
0.0
173
     0
291
     0
 45
0.0
1001
ACAD
1000
AcDbSavedByObjectVersion
1070
     0
  0
DICTIONARYVAR
  5
1C3
102
{ACAD_REACTORS
330
1C2
102
}
330
1C2
100
DictionaryVariables
280
     0
  1
1:1
  0
DICTIONARYVAR
  5
204
102
{ACAD_REACTORS
330
1C2
102
}
330
1C2
100
DictionaryVariables
280
     0
  1
Standard
  0
DICTIONARYVAR
  5
203
102
{ACAD_REACTORS
330
1C2
102
}
330
1C2
100
DictionaryVariables
280
     0
  1
Standard
  0
DICTIONARYVAR
  5
1C4
102
{ACAD_REACTORS
330
1C2
102
}
330
1C2
100
DictionaryVariables
280
     0
  1
1
  0
DICTIONARYVAR
  5
1C5
102
{ACAD_REACTORS
330
1C2
102
}
330
1C2
100
DictionaryVariables
280
     0
  1
2
  0
DICTIONARY
  5
1F8
330
45
100
AcDbDictionary
280
     1
281
     1
  3
ACAD_XREC_ROUNDTRIP
360
1F9
  0
DICTIONARY
  5
1F6
330
44
100
AcDbDictionary
280
     1
281
     1
  3
ACAD_XREC_ROUNDTRIP
360
1F7
  0
DICTIONARY
  5
1FA
330
46
100
AcDbDictionary
280
     1
281
     1
  3
ACAD_XREC_ROUNDTRIP
360
1FB
  0
DICTIONARY
  5
200
330
6C
100
AcDbDictionary
280
     1
281
     1
  3
ACAD_XREC_ROUNDTRIP
360
201
  0
DICTIONARY
  5
1FC
330
6A
100
AcDbDictionary
280
     1
281
     1
  3
ACAD_ROUNDTRIP_2008_TABLESTYLE_CELLSTYLEMAP
360
1FE
  3
ACAD_XREC_ROUNDTRIP
360
1FD
  0
DICTIONARY
  5
1CE
330
2F
100
AcDbDictionary
280
     1
281
     1
  3
ACAD_XREC_ROUNDTRIP
360
1CF
  0
DICTIONARY
  5
1D4
330
32
100
AcDbDictionary
280
     1
281
     1
  3
ACAD_XREC_ROUNDTRIP
360
1D5
  0
DICTIONARY
  5
1DC
330
36
100
AcDbDictionary
280
     1
281
     1
  3
ACAD_XREC_ROUNDTRIP
360
1DD
  0
DICTIONARY
  5
1E4
330
3A
100
AcDbDictionary
280
     1
281
     1
  3
ACAD_XREC_ROUNDTRIP
360
1E5
  0
DICTIONARY
  5
1D8
330
34
100
AcDbDictionary
280
     1
281
     1
  3
ACAD_XREC_ROUNDTRIP
360
1D9
  0
DICTIONARY
  5
1DA
330
35
100
AcDbDictionary
280
     1
281
     1
  3
ACAD_XREC_ROUNDTRIP
360
1DB
  0
DICTIONARY
  5
1EA
330
3D
100
AcDbDictionary
280
     1
281
     1
  3
ACAD_XREC_ROUNDTRIP
360
1EB
  0
DICTIONARY
  5
1E2
330
39
100
AcDbDictionary
280
     1
281
     1
  3
ACAD_XREC_ROUNDTRIP
360
1E3
  0
DICTIONARY
  5
1C6
330
2B
100
AcDbDictionary
280
     1
281
     1
  3
ACAD_XREC_ROUNDTRIP
360
1C7
  0
DICTIONARY
  5
1C8
330
2C
100
AcDbDictionary
280
     1
281
     1
  3
ACAD_XREC_ROUNDTRIP
360
1C9
  0
DICTIONARY
  5
1CA
330
2D
100
AcDbDictionary
280
     1
281
     1
  3
ACAD_XREC_ROUNDTRIP
360
1CB
  0
DICTIONARY
  5
1CC
330
2E
100
AcDbDictionary
280
     1
281
     1
  3
ACAD_XREC_ROUNDTRIP
360
1CD
  0
DICTIONARY
  5
1D2
330
31
100
AcDbDictionary
280
     1
281
     1
  3
ACAD_XREC_ROUNDTRIP
360
1D3
  0
DICTIONARY
  5
1E6
330
3B
100
AcDbDictionary
280
     1
281
     1
  3
ACAD_XREC_ROUNDTRIP
360
1E7
  0
DICTIONARY
  5
1E0
330
38
100
AcDbDictionary
280
     1
281
     1
  3
ACAD_XREC_ROUNDTRIP
360
1E1
  0
DICTIONARY
  5
1E8
330
3C
100
AcDbDictionary
280
     1
281
     1
  3
ACAD_XREC_ROUNDTRIP
360
1E9
  0
DICTIONARY
  5
1D6
330
33
100
AcDbDictionary
280
     1
281
     1
  3
ACAD_XREC_ROUNDTRIP
360
1D7
  0
DICTIONARY
  5
1F4
330
42
100
AcDbDictionary
280
     1
281
     1
  3
ACAD_XREC_ROUNDTRIP
360
1F5
  0
DICTIONARY
  5
1F2
330
41
100
AcDbDictionary
280
     1
281
     1
  3
ACAD_XREC_ROUNDTRIP
360
1F3
  0
DICTIONARY
  5
1EC
330
3E
100
AcDbDictionary
280
     1
281
     1
  3
ACAD_XREC_ROUNDTRIP
360
1ED
  0
DICTIONARY
  5
1EE
330
3F
100
AcDbDictionary
280
     1
281
     1
  3
ACAD_XREC_ROUNDTRIP
360
1EF
  0
DICTIONARY
  5
1DE
330
37
100
AcDbDictionary
280
     1
281
     1
  3
ACAD_XREC_ROUNDTRIP
360
1DF
  0
DICTIONARY
  5
1D0
330
30
100
AcDbDictionary
280
     1
281
     1
  3
ACAD_XREC_ROUNDTRIP
360
1D1
  0
DICTIONARY
  5
1F0
330
40
100
AcDbDictionary
280
     1
281
     1
  3
ACAD_XREC_ROUNDTRIP
360
1F1
  0
XRECORD
  5
1F9
102
{ACAD_REACTORS
330
1F8
102
}
330
1F8
100
AcDbXrecord
280
     1
102
MATERIAL
148
0.0
149
0.0
149
0.0
 93
        0
 94
      127
282
     0
 72
     1
 77
     1
171
     1
175
     1
179
     1
273
     0
  0
XRECORD
  5
1F7
102
{ACAD_REACTORS
330
1F6
102
}
330
1F6
100
AcDbXrecord
280
     1
102
MATERIAL
148
0.0
149
0.0
149
0.0
 93
        0
 94
      127
282
     0
 72
     1
 77
     1
171
     1
175
     1
179
     1
273
     0
  0
XRECORD
  5
1FB
102
{ACAD_REACTORS
330
1FA
102
}
330
1FA
100
AcDbXrecord
280
     1
102
MATERIAL
148
0.0
149
0.0
149
0.0
 93
        0
 94
      127
282
     0
 72
     1
 77
     1
171
     1
175
     1
179
     1
273
     0
  0
XRECORD
  5
201
102
{ACAD_REACTORS
330
200
102
}
330
200
100
AcDbXrecord
280
     1
102
ACAD_ROUNDTRIP_2010_MLEADER_STYLE
  0
CELLSTYLEMAP
  5
1FE
102
{ACAD_REACTORS
330
1FC
102
}
330
1FC
100
AcDbCellStyleMap
 90
        3
300
CELLSTYLE
  1
TABLEFORMAT_BEGIN
 90
        5
170
     1
 91
        0
 92
    32768
 62
   257
 93
        1
300
CONTENTFORMAT
  1
CONTENTFORMAT_BEGIN
 90
        0
 91
        0
 92
        4
 93
        0
300

 40
0.0
140
1.0
 94
        5
 62
     0
340
11
144
0.25
309
CONTENTFORMAT_END
171
     1
301
MARGIN
  1
CELLMARGIN_BEGIN
 40
0.06
 40
0.06
 40
0.06
 40
0.06
 40
0.06
 40
0.06
309
CELLMARGIN_END
 94
        6
 95
        1
302
GRIDFORMAT
  1
GRIDFORMAT_BEGIN
 90
        0
 91
        1
 62
     0
 92
       -2
340
14
 93
        0
 40
0.045
309
GRIDFORMAT_END
 95
        2
302
GRIDFORMAT
  1
GRIDFORMAT_BEGIN
 90
        0
 91
        1
 62
     0
 92
       -2
340
14
 93
        0
 40
0.045
309
GRIDFORMAT_END
 95
        4
302
GRIDFORMAT
  1
GRIDFORMAT_BEGIN
 90
        0
 91
        1
 62
     0
 92
       -2
340
14
 93
        0
 40
0.045
309
GRIDFORMAT_END
 95
        8
302
GRIDFORMAT
  1
GRIDFORMAT_BEGIN
 90
        0
 91
        1
 62
     0
 92
       -2
340
14
 93
        0
 40
0.045
309
GRIDFORMAT_END
 95
       16
302
GRIDFORMAT
  1
GRIDFORMAT_BEGIN
 90
        0
 91
        1
 62
     0
 92
       -2
340
14
 93
        0
 40
0.045
309
GRIDFORMAT_END
 95
       32
302
GRIDFORMAT
  1
GRIDFORMAT_BEGIN
 90
        0
 91
        1
 62
     0
 92
       -2
340
14
 93
        0
 40
0.045
309
GRIDFORMAT_END
309
TABLEFORMAT_END
  1
CELLSTYLE_BEGIN
 90
        1
 91
        1
300
_TITLE
309
CELLSTYLE_END
300
CELLSTYLE
  1
TABLEFORMAT_BEGIN
 90
        5
170
     1
 91
        0
 92
        0
 62
   257
 93
        1
300
CONTENTFORMAT
  1
CONTENTFORMAT_BEGIN
 90
        0
 91
        0
 92
        4
 93
        0
300

 40
0.0
140
1.0
 94
        5
 62
     0
340
11
144
0.18
309
CONTENTFORMAT_END
171
     1
301
MARGIN
  1
CELLMARGIN_BEGIN
 40
0.06
 40
0.06
 40
0.06
 40
0.06
 40
0.06
 40
0.06
309
CELLMARGIN_END
 94
        6
 95
        1
302
GRIDFORMAT
  1
GRIDFORMAT_BEGIN
 90
        0
 91
        1
 62
     0
 92
       -2
340
14
 93
        0
 40
0.045
309
GRIDFORMAT_END
 95
        2
302
GRIDFORMAT
  1
GRIDFORMAT_BEGIN
 90
        0
 91
        1
 62
     0
 92
       -2
340
14
 93
        0
 40
0.045
309
GRIDFORMAT_END
 95
        4
302
GRIDFORMAT
  1
GRIDFORMAT_BEGIN
 90
        0
 91
        1
 62
     0
 92
       -2
340
14
 93
        0
 40
0.045
309
GRIDFORMAT_END
 95
        8
302
GRIDFORMAT
  1
GRIDFORMAT_BEGIN
 90
        0
 91
        1
 62
     0
 92
       -2
340
14
 93
        0
 40
0.045
309
GRIDFORMAT_END
 95
       16
302
GRIDFORMAT
  1
GRIDFORMAT_BEGIN
 90
        0
 91
        1
 62
     0
 92
       -2
340
14
 93
        0
 40
0.045
309
GRIDFORMAT_END
 95
       32
302
GRIDFORMAT
  1
GRIDFORMAT_BEGIN
 90
        0
 91
        1
 62
     0
 92
       -2
340
14
 93
        0
 40
0.045
309
GRIDFORMAT_END
309
TABLEFORMAT_END
  1
CELLSTYLE_BEGIN
 90
        2
 91
        1
300
_HEADER
309
CELLSTYLE_END
300
CELLSTYLE
  1
TABLEFORMAT_BEGIN
 90
        5
170
     1
 91
        0
 92
        0
 62
   257
 93
        1
300
CONTENTFORMAT
  1
CONTENTFORMAT_BEGIN
 90
        0
 91
        0
 92
        4
 93
        0
300

 40
0.0
140
1.0
 94
        2
 62
     0
340
11
144
0.18
309
CONTENTFORMAT_END
171
     1
301
MARGIN
  1
CELLMARGIN_BEGIN
 40
0.06
 40
0.06
 40
0.06
 40
0.06
 40
0.06
 40
0.06
309
CELLMARGIN_END
 94
        6
 95
        1
302
GRIDFORMAT
  1
GRIDFORMAT_BEGIN
 90
        0
 91
        1
 62
     0
 92
       -2
340
14
 93
        0
 40
0.045
309
GRIDFORMAT_END
 95
        2
302
GRIDFORMAT
  1
GRIDFORMAT_BEGIN
 90
        0
 91
        1
 62
     0
 92
       -2
340
14
 93
        0
 40
0.045
309
GRIDFORMAT_END
 95
        4
302
GRIDFORMAT
  1
GRIDFORMAT_BEGIN
 90
        0
 91
        1
 62
     0
 92
       -2
340
14
 93
        0
 40
0.045
309
GRIDFORMAT_END
 95
        8
302
GRIDFORMAT
  1
GRIDFORMAT_BEGIN
 90
        0
 91
        1
 62
     0
 92
       -2
340
14
 93
        0
 40
0.045
309
GRIDFORMAT_END
 95
       16
302
GRIDFORMAT
  1
GRIDFORMAT_BEGIN
 90
        0
 91
        1
 62
     0
 92
       -2
340
14
 93
        0
 40
0.045
309
GRIDFORMAT_END
 95
       32
302
GRIDFORMAT
  1
GRIDFORMAT_BEGIN
 90
        0
 91
        1
 62
     0
 92
       -2
340
14
 93
        0
 40
0.045
309
GRIDFORMAT_END
309
TABLEFORMAT_END
  1
CELLSTYLE_BEGIN
 90
        3
 91
        2
300
_DATA
309
CELLSTYLE_END
  0
XRECORD
  5
1FD
102
{ACAD_REACTORS
330
1FC
102
}
330
1FC
100
AcDbXrecord
280
     1
102
ACAD_ROUNDTRIP_PRE2007_TABLESTYLE
 90
        4
 91
        0
  1

 92
        4
 93
        0
  2

 94
        4
 95
        0
  3

  0
XRECORD
  5
1CF
102
{ACAD_REACTORS
330
1CE
102
}
330
1CE
100
AcDbXrecord
280
     1
102
RTVSPropertyOp0
 70
     1
102
RTVSPropertyOp1
 70
     1
102
RTVSPropertyOp2
 70
     1
102
RTVSPropertyOp3
 70
     1
102
RTVSPropertyOp4
 70
     1
102
RTVSPropertyOp5
 70
     1
102
RTVSPropertyOp6
 70
     1
102
RTVSPropertyOp7
 70
     1
102
RTVSPropertyOp8
 70
     1
102
RTVSPropertyOp9
 70
     1
102
RTVSPropertyOp10
 70
     1
102
RTVSPropertyOp11
 70
     1
102
RTVSPropertyOp12
 70
     1
102
RTVSPropertyOp13
 70
     1
102
RTVSPropertyOp14
 70
     1
102
RTVSPropertyOp15
 70
     1
102
RTVSPropertyOp16
 70
     1
102
RTVSPropertyOp17
 70
     1
102
RTVSPropertyOp18
 70
     1
102
RTVSPropertyOp19
 70
     1
102
RTVSPropertyOp20
 70
     1
102
RTVSPropertyOp21
 70
     1
102
RTVSPropertyOp22
 70
     1
102
RTVSPropertyOp23
 70
     1
102
RTVSPropertyOp24
 70
     1
102
RTVSPropertyOp25
 70
     1
102
RTVSPropertyOp26
 70
     1
102
RTVSPropertyOp27
 70
     1
102
RTVSPropertyOp28
 70
     1
102
RTVSPropertyOp29
 70
     1
102
RTVSPropertyOp30
 70
     1
102
RTVSPropertyOp31
 70
     1
102
RTVSPropertyOp32
 70
     1
102
RTVSPropertyOp33
 70
     1
102
RTVSPropertyOp34
 70
     1
102
RTVSPropertyOp35
 70
     1
102
RTVSPropertyOp36
 70
     1
102
RTVSPropertyOp37
 70
     1
102
RTVSPropertyOp38
 70
     1
102
RTVSPropertyOp39
 70
     1
102
RTVSPropertyOp40
 70
     1
102
RTVSPropertyOp41
 70
     1
102
RTVSPropertyOp42
 70
     1
102
RTVSPropertyOp43
 70
     1
102
RTVSPropertyOp44
 70
     1
102
RTVSPropertyOp45
 70
     1
102
RTVSPropertyOp46
 70
     1
102
RTVSPropertyOp47
 70
     1
102
RTVSPropertyOp48
 70
     1
102
RTVSPropertyOp49
 70
     1
102
RTVSPropertyOp50
 70
     1
102
RTVSPropertyOp51
 70
     0
102
RTVSPropertyOp52
 70
     0
102
RTVSPropertyOp53
 70
     1
102
RTVSPropertyOp54
 70
     1
102
RTVSPropertyOp55
 70
     1
102
RTVSPropertyOp56
 70
     1
102
RTVSPropertyOp57
 70
     1
102
RTVSPost2010Prop28
280
     1
102
RTVSPost2010PropOp28
 70
     1
102
RTVSPost2010Prop29
280
     1
102
RTVSPost2010PropOp29
 70
     1
102
RTVSPost2010Prop30
280
     0
102
RTVSPost2010PropOp30
 70
     1
102
RTVSPost2010Prop31
280
     0
102
RTVSPost2010PropOp31
 70
     1
102
RTVSPost2010Prop32
280
     0
102
RTVSPost2010PropOp32
 70
     1
102
RTVSPost2010Prop33
280
     0
102
RTVSPost2010PropOp33
 70
     1
102
RTVSPost2010Prop34
280
     0
102
RTVSPost2010PropOp34
 70
     1
102
RTVSPost2010Prop35
280
     0
102
RTVSPost2010PropOp35
 70
     1
102
RTVSPost2010Prop36
280
     0
102
RTVSPost2010PropOp36
 70
     1
102
RTVSPost2010Prop37
 90
       50
102
RTVSPost2010PropOp37
 70
     1
102
RTVSPost2010Prop38
140
0.0
102
RTVSPost2010PropOp38
 70
     1
102
RTVSPost2010Prop39
140
1.0
102
RTVSPost2010PropOp39
 70
     1
102
RTVSPost2010Prop40
 90
        0
102
RTVSPost2010PropOp40
 70
     1
102
RTVSPost2010Prop41ColorIndex
 90
       18
102
RTVSPost2010Prop41ColorRGB
 90
        0
102
RTVSPost2010PropOp41
 70
     1
102
RTVSPost2010Prop42
 90
       50
102
RTVSPost2010PropOp42
 70
     1
102
RTVSPost2010Prop43
 90
        3
102
RTVSPost2010PropOp43
 70
     1
102
RTVSPost2010Prop44ColorIndex
 90
        5
102
RTVSPost2010Prop44ColorRGB
 90
      255
102
RTVSPost2010PropOp44
 70
     1
102
RTVSPost2010Prop45
280
     0
102
RTVSPost2010PropOp45
 70
     1
102
RTVSPost2010Prop46
 90
       50
102
RTVSPost2010PropOp46
 70
     1
102
RTVSPost2010Prop47
 90
       50
102
RTVSPost2010PropOp47
 70
     1
102
RTVSPost2010Prop48
 90
       50
102
RTVSPost2010PropOp48
 70
     1
102
RTVSPost2010Prop49
280
     0
102
RTVSPost2010PropOp49
 70
     1
102
RTVSPost2010Prop50
 90
       50
102
RTVSPost2010PropOp50
 70
     1
102
RTVSPost2010Prop51ColorIndex
 90
      256
102
RTVSPost2010Prop51ColorRGB
 90
-16777216
102
RTVSPost2010PropOp51
 70
     0
102
RTVSPost2010Prop52
140
1.0
102
RTVSPost2010PropOp52
 70
     0
102
RTVSPost2010Prop53
 90
        2
102
RTVSPost2010PropOp53
 70
     1
102
RTVSPost2010Prop54
  1
strokes_ogs.tif
102
RTVSPost2010PropOp54
 70
     1
102
RTVSPost2010Prop55
280
     0
102
RTVSPost2010PropOp55
 70
     1
102
RTVSPost2010Prop56
140
1.0
102
RTVSPost2010PropOp56
 70
     1
102
RTVSPost2010Prop57
140
1.0
102
RTVSPost2010PropOp57
 70
     1
  0
XRECORD
  5
1D5
102
{ACAD_REACTORS
330
1D4
102
}
330
1D4
100
AcDbXrecord
280
     1
102
RTVSPropertyOp0
 70
     1
102
RTVSPropertyOp1
 70
     1
102
RTVSPropertyOp2
 70
     1
102
RTVSPropertyOp3
 70
     1
102
RTVSPropertyOp4
 70
     1
102
RTVSPropertyOp5
 70
     1
102
RTVSPropertyOp6
 70
     1
102
RTVSPropertyOp7
 70
     1
102
RTVSPropertyOp8
 70
     1
102
RTVSPropertyOp9
 70
     1
102
RTVSPropertyOp10
 70
     1
102
RTVSPropertyOp11
 70
     1
102
RTVSPropertyOp12
 70
     1
102
RTVSPropertyOp13
 70
     1
102
RTVSPropertyOp14
 70
     1
102
RTVSPropertyOp15
 70
     1
102
RTVSPropertyOp16
 70
     1
102
RTVSPropertyOp17
 70
     1
102
RTVSPropertyOp18
 70
     1
102
RTVSPropertyOp19
 70
     1
102
RTVSPropertyOp20
 70
     1
102
RTVSPropertyOp21
 70
     1
102
RTVSPropertyOp22
 70
     1
102
RTVSPropertyOp23
 70
     1
102
RTVSPropertyOp24
 70
     1
102
RTVSPropertyOp25
 70
     1
102
RTVSPropertyOp26
 70
     1
102
RTVSPropertyOp27
 70
     1
102
RTVSPropertyOp28
 70
     1
102
RTVSPropertyOp29
 70
     1
102
RTVSPropertyOp30
 70
     1
102
RTVSPropertyOp31
 70
     1
102
RTVSPropertyOp32
 70
     1
102
RTVSPropertyOp33
 70
     1
102
RTVSPropertyOp34
 70
     1
102
RTVSPropertyOp35
 70
     1
102
RTVSPropertyOp36
 70
     1
102
RTVSPropertyOp37
 70
     1
102
RTVSPropertyOp38
 70
     1
102
RTVSPropertyOp39
 70
     1
102
RTVSPropertyOp40
 70
     1
102
RTVSPropertyOp41
 70
     1
102
RTVSPropertyOp42
 70
     1
102
RTVSPropertyOp43
 70
     1
102
RTVSPropertyOp44
 70
     1
102
RTVSPropertyOp45
 70
     1
102
RTVSPropertyOp46
 70
     1
102
RTVSPropertyOp47
 70
     1
102
RTVSPropertyOp48
 70
     1
102
RTVSPropertyOp49
 70
     1
102
RTVSPropertyOp50
 70
     1
102
RTVSPropertyOp51
 70
     0
102
RTVSPropertyOp52
 70
     0
102
RTVSPropertyOp53
 70
     1
102
RTVSPropertyOp54
 70
     1
102
RTVSPropertyOp55
 70
     1
102
RTVSPropertyOp56
 70
     1
102
RTVSPropertyOp57
 70
     1
102
RTVSPost2010Prop28
280
     0
102
RTVSPost2010PropOp28
 70
     1
102
RTVSPost2010Prop29
280
     1
102
RTVSPost2010PropOp29
 70
     1
102
RTVSPost2010Prop30
280
     1
102
RTVSPost2010PropOp30
 70
     1
102
RTVSPost2010Prop31
280
     0
102
RTVSPost2010PropOp31
 70
     1
102
RTVSPost2010Prop32
280
     0
102
RTVSPost2010PropOp32
 70
     1
102
RTVSPost2010Prop33
280
     0
102
RTVSPost2010PropOp33
 70
     1
102
RTVSPost2010Prop34
280
     0
102
RTVSPost2010PropOp34
 70
     1
102
RTVSPost2010Prop35
280
     0
102
RTVSPost2010PropOp35
 70
     1
102
RTVSPost2010Prop36
280
     0
102
RTVSPost2010PropOp36
 70
     1
102
RTVSPost2010Prop37
 90
       50
102
RTVSPost2010PropOp37
 70
     1
102
RTVSPost2010Prop38
140
0.0
102
RTVSPost2010PropOp38
 70
     1
102
RTVSPost2010Prop39
140
1.0
102
RTVSPost2010PropOp39
 70
     1
102
RTVSPost2010Prop40
 90
        0
102
RTVSPost2010PropOp40
 70
     1
102
RTVSPost2010Prop41ColorIndex
 90
       18
102
RTVSPost2010Prop41ColorRGB
 90
        0
102
RTVSPost2010PropOp41
 70
     1
102
RTVSPost2010Prop42
 90
       50
102
RTVSPost2010PropOp42
 70
     1
102
RTVSPost2010Prop43
 90
        3
102
RTVSPost2010PropOp43
 70
     1
102
RTVSPost2010Prop44ColorIndex
 90
        5
102
RTVSPost2010Prop44ColorRGB
 90
      255
102
RTVSPost2010PropOp44
 70
     1
102
RTVSPost2010Prop45
280
     0
102
RTVSPost2010PropOp45
 70
     1
102
RTVSPost2010Prop46
 90
       50
102
RTVSPost2010PropOp46
 70
     1
102
RTVSPost2010Prop47
 90
       50
102
RTVSPost2010PropOp47
 70
     1
102
RTVSPost2010Prop48
 90
       50
102
RTVSPost2010PropOp48
 70
     1
102
RTVSPost2010Prop49
280
     0
102
RTVSPost2010PropOp49
 70
     1
102
RTVSPost2010Prop50
 90
       50
102
RTVSPost2010PropOp50
 70
     1
102
RTVSPost2010Prop51ColorIndex
 90
      256
102
RTVSPost2010Prop51ColorRGB
 90
-16777216
102
RTVSPost2010PropOp51
 70
     0
102
RTVSPost2010Prop52
140
1.0
102
RTVSPost2010PropOp52
 70
     0
102
RTVSPost2010Prop53
 90
        2
102
RTVSPost2010PropOp53
 70
     1
102
RTVSPost2010Prop54
  1
strokes_ogs.tif
102
RTVSPost2010PropOp54
 70
     1
102
RTVSPost2010Prop55
280
     0
102
RTVSPost2010PropOp55
 70
     1
102
RTVSPost2010Prop56
140
1.0
102
RTVSPost2010PropOp56
 70
     1
102
RTVSPost2010Prop57
140
1.0
102
RTVSPost2010PropOp57
 70
     1
  0
XRECORD
  5
1DD
102
{ACAD_REACTORS
330
1DC
102
}
330
1DC
100
AcDbXrecord
280
     1
102
RTVSPropertyOp0
 70
     1
102
RTVSPropertyOp1
 70
     1
102
RTVSPropertyOp2
 70
     1
102
RTVSPropertyOp3
 70
     1
102
RTVSPropertyOp4
 70
     1
102
RTVSPropertyOp5
 70
     1
102
RTVSPropertyOp6
 70
     1
102
RTVSPropertyOp7
 70
     1
102
RTVSPropertyOp8
 70
     1
102
RTVSPropertyOp9
 70
     1
102
RTVSPropertyOp10
 70
     1
102
RTVSPropertyOp11
 70
     1
102
RTVSPropertyOp12
 70
     1
102
RTVSPropertyOp13
 70
     1
102
RTVSPropertyOp14
 70
     1
102
RTVSPropertyOp15
 70
     1
102
RTVSPropertyOp16
 70
     1
102
RTVSPropertyOp17
 70
     1
102
RTVSPropertyOp18
 70
     1
102
RTVSPropertyOp19
 70
     1
102
RTVSPropertyOp20
 70
     1
102
RTVSPropertyOp21
 70
     1
102
RTVSPropertyOp22
 70
     1
102
RTVSPropertyOp23
 70
     1
102
RTVSPropertyOp24
 70
     1
102
RTVSPropertyOp25
 70
     1
102
RTVSPropertyOp26
 70
     1
102
RTVSPropertyOp27
 70
     1
102
RTVSPropertyOp28
 70
     1
102
RTVSPropertyOp29
 70
     1
102
RTVSPropertyOp30
 70
     1
102
RTVSPropertyOp31
 70
     1
102
RTVSPropertyOp32
 70
     1
102
RTVSPropertyOp33
 70
     1
102
RTVSPropertyOp34
 70
     1
102
RTVSPropertyOp35
 70
     1
102
RTVSPropertyOp36
 70
     1
102
RTVSPropertyOp37
 70
     1
102
RTVSPropertyOp38
 70
     1
102
RTVSPropertyOp39
 70
     1
102
RTVSPropertyOp40
 70
     1
102
RTVSPropertyOp41
 70
     1
102
RTVSPropertyOp42
 70
     1
102
RTVSPropertyOp43
 70
     1
102
RTVSPropertyOp44
 70
     1
102
RTVSPropertyOp45
 70
     1
102
RTVSPropertyOp46
 70
     1
102
RTVSPropertyOp47
 70
     1
102
RTVSPropertyOp48
 70
     1
102
RTVSPropertyOp49
 70
     1
102
RTVSPropertyOp50
 70
     1
102
RTVSPropertyOp51
 70
     0
102
RTVSPropertyOp52
 70
     0
102
RTVSPropertyOp53
 70
     1
102
RTVSPropertyOp54
 70
     1
102
RTVSPropertyOp55
 70
     1
102
RTVSPropertyOp56
 70
     1
102
RTVSPropertyOp57
 70
     1
102
RTVSPost2010Prop28
280
     0
102
RTVSPost2010PropOp28
 70
     1
102
RTVSPost2010Prop29
280
     1
102
RTVSPost2010PropOp29
 70
     1
102
RTVSPost2010Prop30
280
     1
102
RTVSPost2010PropOp30
 70
     1
102
RTVSPost2010Prop31
280
     0
102
RTVSPost2010PropOp31
 70
     1
102
RTVSPost2010Prop32
280
     0
102
RTVSPost2010PropOp32
 70
     1
102
RTVSPost2010Prop33
280
     0
102
RTVSPost2010PropOp33
 70
     1
102
RTVSPost2010Prop34
280
     0
102
RTVSPost2010PropOp34
 70
     1
102
RTVSPost2010Prop35
280
     0
102
RTVSPost2010PropOp35
 70
     1
102
RTVSPost2010Prop36
280
     0
102
RTVSPost2010PropOp36
 70
     1
102
RTVSPost2010Prop37
 90
       50
102
RTVSPost2010PropOp37
 70
     1
102
RTVSPost2010Prop38
140
0.0
102
RTVSPost2010PropOp38
 70
     1
102
RTVSPost2010Prop39
140
1.0
102
RTVSPost2010PropOp39
 70
     1
102
RTVSPost2010Prop40
 90
        0
102
RTVSPost2010PropOp40
 70
     1
102
RTVSPost2010Prop41ColorIndex
 90
       18
102
RTVSPost2010Prop41ColorRGB
 90
        0
102
RTVSPost2010PropOp41
 70
     1
102
RTVSPost2010Prop42
 90
       50
102
RTVSPost2010PropOp42
 70
     1
102
RTVSPost2010Prop43
 90
        3
102
RTVSPost2010PropOp43
 70
     1
102
RTVSPost2010Prop44ColorIndex
 90
        5
102
RTVSPost2010Prop44ColorRGB
 90
      255
102
RTVSPost2010PropOp44
 70
     1
102
RTVSPost2010Prop45
280
     0
102
RTVSPost2010PropOp45
 70
     1
102
RTVSPost2010Prop46
 90
       50
102
RTVSPost2010PropOp46
 70
     1
102
RTVSPost2010Prop47
 90
       50
102
RTVSPost2010PropOp47
 70
     1
102
RTVSPost2010Prop48
 90
       50
102
RTVSPost2010PropOp48
 70
     1
102
RTVSPost2010Prop49
280
     0
102
RTVSPost2010PropOp49
 70
     1
102
RTVSPost2010Prop50
 90
       50
102
RTVSPost2010PropOp50
 70
     1
102
RTVSPost2010Prop51ColorIndex
 90
      256
102
RTVSPost2010Prop51ColorRGB
 90
-16777216
102
RTVSPost2010PropOp51
 70
     0
102
RTVSPost2010Prop52
140
1.0
102
RTVSPost2010PropOp52
 70
     0
102
RTVSPost2010Prop53
 90
        2
102
RTVSPost2010PropOp53
 70
     1
102
RTVSPost2010Prop54
  1
strokes_ogs.tif
102
RTVSPost2010PropOp54
 70
     1
102
RTVSPost2010Prop55
280
     0
102
RTVSPost2010PropOp55
 70
     1
102
RTVSPost2010Prop56
140
1.0
102
RTVSPost2010PropOp56
 70
     1
102
RTVSPost2010Prop57
140
1.0
102
RTVSPost2010PropOp57
 70
     1
  0
XRECORD
  5
1E5
102
{ACAD_REACTORS
330
1E4
102
}
330
1E4
100
AcDbXrecord
280
     1
102
RTVSPropertyOp0
 70
     1
102
RTVSPropertyOp1
 70
     1
102
RTVSPropertyOp2
 70
     1
102
RTVSPropertyOp3
 70
     1
102
RTVSPropertyOp4
 70
     1
102
RTVSPropertyOp5
 70
     1
102
RTVSPropertyOp6
 70
     1
102
RTVSPropertyOp7
 70
     1
102
RTVSPropertyOp8
 70
     1
102
RTVSPropertyOp9
 70
     1
102
RTVSPropertyOp10
 70
     1
102
RTVSPropertyOp11
 70
     1
102
RTVSPropertyOp12
 70
     1
102
RTVSPropertyOp13
 70
     1
102
RTVSPropertyOp14
 70
     1
102
RTVSPropertyOp15
 70
     1
102
RTVSPropertyOp16
 70
     1
102
RTVSPropertyOp17
 70
     1
102
RTVSPropertyOp18
 70
     1
102
RTVSPropertyOp19
 70
     1
102
RTVSPropertyOp20
 70
     1
102
RTVSPropertyOp21
 70
     1
102
RTVSPropertyOp22
 70
     1
102
RTVSPropertyOp23
 70
     1
102
RTVSPropertyOp24
 70
     1
102
RTVSPropertyOp25
 70
     1
102
RTVSPropertyOp26
 70
     1
102
RTVSPropertyOp27
 70
     1
102
RTVSPropertyOp28
 70
     1
102
RTVSPropertyOp29
 70
     1
102
RTVSPropertyOp30
 70
     1
102
RTVSPropertyOp31
 70
     1
102
RTVSPropertyOp32
 70
     1
102
RTVSPropertyOp33
 70
     1
102
RTVSPropertyOp34
 70
     1
102
RTVSPropertyOp35
 70
     1
102
RTVSPropertyOp36
 70
     1
102
RTVSPropertyOp37
 70
     1
102
RTVSPropertyOp38
 70
     1
102
RTVSPropertyOp39
 70
     1
102
RTVSPropertyOp40
 70
     1
102
RTVSPropertyOp41
 70
     1
102
RTVSPropertyOp42
 70
     1
102
RTVSPropertyOp43
 70
     1
102
RTVSPropertyOp44
 70
     1
102
RTVSPropertyOp45
 70
     1
102
RTVSPropertyOp46
 70
     1
102
RTVSPropertyOp47
 70
     1
102
RTVSPropertyOp48
 70
     1
102
RTVSPropertyOp49
 70
     1
102
RTVSPropertyOp50
 70
     1
102
RTVSPropertyOp51
 70
     0
102
RTVSPropertyOp52
 70
     0
102
RTVSPropertyOp53
 70
     1
102
RTVSPropertyOp54
 70
     1
102
RTVSPropertyOp55
 70
     1
102
RTVSPropertyOp56
 70
     1
102
RTVSPropertyOp57
 70
     1
102
RTVSPost2010Prop28
280
     0
102
RTVSPost2010PropOp28
 70
     1
102
RTVSPost2010Prop29
280
     1
102
RTVSPost2010PropOp29
 70
     1
102
RTVSPost2010Prop30
280
     1
102
RTVSPost2010PropOp30
 70
     1
102
RTVSPost2010Prop31
280
     0
102
RTVSPost2010PropOp31
 70
     1
102
RTVSPost2010Prop32
280
     0
102
RTVSPost2010PropOp32
 70
     1
102
RTVSPost2010Prop33
280
     0
102
RTVSPost2010PropOp33
 70
     1
102
RTVSPost2010Prop34
280
     0
102
RTVSPost2010PropOp34
 70
     1
102
RTVSPost2010Prop35
280
     0
102
RTVSPost2010PropOp35
 70
     1
102
RTVSPost2010Prop36
280
     0
102
RTVSPost2010PropOp36
 70
     1
102
RTVSPost2010Prop37
 90
       50
102
RTVSPost2010PropOp37
 70
     1
102
RTVSPost2010Prop38
140
0.0
102
RTVSPost2010PropOp38
 70
     1
102
RTVSPost2010Prop39
140
1.0
102
RTVSPost2010PropOp39
 70
     1
102
RTVSPost2010Prop40
 90
        0
102
RTVSPost2010PropOp40
 70
     1
102
RTVSPost2010Prop41ColorIndex
 90
       18
102
RTVSPost2010Prop41ColorRGB
 90
        0
102
RTVSPost2010PropOp41
 70
     1
102
RTVSPost2010Prop42
 90
       50
102
RTVSPost2010PropOp42
 70
     1
102
RTVSPost2010Prop43
 90
        3
102
RTVSPost2010PropOp43
 70
     1
102
RTVSPost2010Prop44ColorIndex
 90
        5
102
RTVSPost2010Prop44ColorRGB
 90
      255
102
RTVSPost2010PropOp44
 70
     1
102
RTVSPost2010Prop45
280
     0
102
RTVSPost2010PropOp45
 70
     1
102
RTVSPost2010Prop46
 90
       50
102
RTVSPost2010PropOp46
 70
     1
102
RTVSPost2010Prop47
 90
       50
102
RTVSPost2010PropOp47
 70
     1
102
RTVSPost2010Prop48
 90
       50
102
RTVSPost2010PropOp48
 70
     1
102
RTVSPost2010Prop49
280
     0
102
RTVSPost2010PropOp49
 70
     1
102
RTVSPost2010Prop50
 90
       50
102
RTVSPost2010PropOp50
 70
     1
102
RTVSPost2010Prop51ColorIndex
 90
      256
102
RTVSPost2010Prop51ColorRGB
 90
-16777216
102
RTVSPost2010PropOp51
 70
     0
102
RTVSPost2010Prop52
140
1.0
102
RTVSPost2010PropOp52
 70
     0
102
RTVSPost2010Prop53
 90
        2
102
RTVSPost2010PropOp53
 70
     1
102
RTVSPost2010Prop54
  1
strokes_ogs.tif
102
RTVSPost2010PropOp54
 70
     1
102
RTVSPost2010Prop55
280
     0
102
RTVSPost2010PropOp55
 70
     1
102
RTVSPost2010Prop56
140
1.0
102
RTVSPost2010PropOp56
 70
     1
102
RTVSPost2010Prop57
140
1.0
102
RTVSPost2010PropOp57
 70
     1
  0
XRECORD
  5
1D9
102
{ACAD_REACTORS
330
1D8
102
}
330
1D8
100
AcDbXrecord
280
     1
102
RTVSPropertyOp0
 70
     1
102
RTVSPropertyOp1
 70
     1
102
RTVSPropertyOp2
 70
     1
102
RTVSPropertyOp3
 70
     1
102
RTVSPropertyOp4
 70
     1
102
RTVSPropertyOp5
 70
     1
102
RTVSPropertyOp6
 70
     1
102
RTVSPropertyOp7
 70
     1
102
RTVSPropertyOp8
 70
     1
102
RTVSPropertyOp9
 70
     1
102
RTVSPropertyOp10
 70
     1
102
RTVSPropertyOp11
 70
     1
102
RTVSPropertyOp12
 70
     1
102
RTVSPropertyOp13
 70
     1
102
RTVSPropertyOp14
 70
     1
102
RTVSPropertyOp15
 70
     1
102
RTVSPropertyOp16
 70
     1
102
RTVSPropertyOp17
 70
     1
102
RTVSPropertyOp18
 70
     1
102
RTVSPropertyOp19
 70
     1
102
RTVSPropertyOp20
 70
     1
102
RTVSPropertyOp21
 70
     1
102
RTVSPropertyOp22
 70
     1
102
RTVSPropertyOp23
 70
     1
102
RTVSPropertyOp24
 70
     1
102
RTVSPropertyOp25
 70
     1
102
RTVSPropertyOp26
 70
     1
102
RTVSPropertyOp27
 70
     1
102
RTVSPropertyOp28
 70
     1
102
RTVSPropertyOp29
 70
     1
102
RTVSPropertyOp30
 70
     1
102
RTVSPropertyOp31
 70
     1
102
RTVSPropertyOp32
 70
     1
102
RTVSPropertyOp33
 70
     1
102
RTVSPropertyOp34
 70
     1
102
RTVSPropertyOp35
 70
     1
102
RTVSPropertyOp36
 70
     1
102
RTVSPropertyOp37
 70
     1
102
RTVSPropertyOp38
 70
     1
102
RTVSPropertyOp39
 70
     1
102
RTVSPropertyOp40
 70
     1
102
RTVSPropertyOp41
 70
     1
102
RTVSPropertyOp42
 70
     1
102
RTVSPropertyOp43
 70
     1
102
RTVSPropertyOp44
 70
     1
102
RTVSPropertyOp45
 70
     1
102
RTVSPropertyOp46
 70
     1
102
RTVSPropertyOp47
 70
     1
102
RTVSPropertyOp48
 70
     1
102
RTVSPropertyOp49
 70
     1
102
RTVSPropertyOp50
 70
     1
102
RTVSPropertyOp51
 70
     0
102
RTVSPropertyOp52
 70
     0
102
RTVSPropertyOp53
 70
     1
102
RTVSPropertyOp54
 70
     1
102
RTVSPropertyOp55
 70
     1
102
RTVSPropertyOp56
 70
     1
102
RTVSPropertyOp57
 70
     1
102
RTVSPost2010Prop28
280
     0
102
RTVSPost2010PropOp28
 70
     1
102
RTVSPost2010Prop29
280
     1
102
RTVSPost2010PropOp29
 70
     1
102
RTVSPost2010Prop30
280
     1
102
RTVSPost2010PropOp30
 70
     1
102
RTVSPost2010Prop31
280
     0
102
RTVSPost2010PropOp31
 70
     1
102
RTVSPost2010Prop32
280
     0
102
RTVSPost2010PropOp32
 70
     1
102
RTVSPost2010Prop33
280
     0
102
RTVSPost2010PropOp33
 70
     1
102
RTVSPost2010Prop34
280
     0
102
RTVSPost2010PropOp34
 70
     1
102
RTVSPost2010Prop35
280
     0
102
RTVSPost2010PropOp35
 70
     1
102
RTVSPost2010Prop36
280
     0
102
RTVSPost2010PropOp36
 70
     1
102
RTVSPost2010Prop37
 90
       50
102
RTVSPost2010PropOp37
 70
     1
102
RTVSPost2010Prop38
140
0.0
102
RTVSPost2010PropOp38
 70
     1
102
RTVSPost2010Prop39
140
1.0
102
RTVSPost2010PropOp39
 70
     1
102
RTVSPost2010Prop40
 90
        0
102
RTVSPost2010PropOp40
 70
     1
102
RTVSPost2010Prop41ColorIndex
 90
       18
102
RTVSPost2010Prop41ColorRGB
 90
        0
102
RTVSPost2010PropOp41
 70
     1
102
RTVSPost2010Prop42
 90
       50
102
RTVSPost2010PropOp42
 70
     1
102
RTVSPost2010Prop43
 90
        3
102
RTVSPost2010PropOp43
 70
     1
102
RTVSPost2010Prop44ColorIndex
 90
        5
102
RTVSPost2010Prop44ColorRGB
 90
      255
102
RTVSPost2010PropOp44
 70
     1
102
RTVSPost2010Prop45
280
     0
102
RTVSPost2010PropOp45
 70
     1
102
RTVSPost2010Prop46
 90
       50
102
RTVSPost2010PropOp46
 70
     1
102
RTVSPost2010Prop47
 90
       50
102
RTVSPost2010PropOp47
 70
     1
102
RTVSPost2010Prop48
 90
       50
102
RTVSPost2010PropOp48
 70
     1
102
RTVSPost2010Prop49
280
     0
102
RTVSPost2010PropOp49
 70
     1
102
RTVSPost2010Prop50
 90
       50
102
RTVSPost2010PropOp50
 70
     1
102
RTVSPost2010Prop51ColorIndex
 90
      256
102
RTVSPost2010Prop51ColorRGB
 90
-16777216
102
RTVSPost2010PropOp51
 70
     0
102
RTVSPost2010Prop52
140
1.0
102
RTVSPost2010PropOp52
 70
     0
102
RTVSPost2010Prop53
 90
        2
102
RTVSPost2010PropOp53
 70
     1
102
RTVSPost2010Prop54
  1
strokes_ogs.tif
102
RTVSPost2010PropOp54
 70
     1
102
RTVSPost2010Prop55
280
     0
102
RTVSPost2010PropOp55
 70
     1
102
RTVSPost2010Prop56
140
1.0
102
RTVSPost2010PropOp56
 70
     1
102
RTVSPost2010Prop57
140
1.0
102
RTVSPost2010PropOp57
 70
     1
  0
XRECORD
  5
1DB
102
{ACAD_REACTORS
330
1DA
102
}
330
1DA
100
AcDbXrecord
280
     1
102
RTVSPropertyOp0
 70
     1
102
RTVSPropertyOp1
 70
     1
102
RTVSPropertyOp2
 70
     1
102
RTVSPropertyOp3
 70
     1
102
RTVSPropertyOp4
 70
     1
102
RTVSPropertyOp5
 70
     1
102
RTVSPropertyOp6
 70
     1
102
RTVSPropertyOp7
 70
     1
102
RTVSPropertyOp8
 70
     1
102
RTVSPropertyOp9
 70
     1
102
RTVSPropertyOp10
 70
     1
102
RTVSPropertyOp11
 70
     1
102
RTVSPropertyOp12
 70
     1
102
RTVSPropertyOp13
 70
     1
102
RTVSPropertyOp14
 70
     1
102
RTVSPropertyOp15
 70
     1
102
RTVSPropertyOp16
 70
     1
102
RTVSPropertyOp17
 70
     1
102
RTVSPropertyOp18
 70
     1
102
RTVSPropertyOp19
 70
     1
102
RTVSPropertyOp20
 70
     1
102
RTVSPropertyOp21
 70
     1
102
RTVSPropertyOp22
 70
     1
102
RTVSPropertyOp23
 70
     1
102
RTVSPropertyOp24
 70
     1
102
RTVSPropertyOp25
 70
     1
102
RTVSPropertyOp26
 70
     1
102
RTVSPropertyOp27
 70
     1
102
RTVSPropertyOp28
 70
     1
102
RTVSPropertyOp29
 70
     1
102
RTVSPropertyOp30
 70
     1
102
RTVSPropertyOp31
 70
     1
102
RTVSPropertyOp32
 70
     1
102
RTVSPropertyOp33
 70
     1
102
RTVSPropertyOp34
 70
     1
102
RTVSPropertyOp35
 70
     1
102
RTVSPropertyOp36
 70
     1
102
RTVSPropertyOp37
 70
     1
102
RTVSPropertyOp38
 70
     1
102
RTVSPropertyOp39
 70
     1
102
RTVSPropertyOp40
 70
     1
102
RTVSPropertyOp41
 70
     1
102
RTVSPropertyOp42
 70
     1
102
RTVSPropertyOp43
 70
     1
102
RTVSPropertyOp44
 70
     1
102
RTVSPropertyOp45
 70
     1
102
RTVSPropertyOp46
 70
     1
102
RTVSPropertyOp47
 70
     1
102
RTVSPropertyOp48
 70
     1
102
RTVSPropertyOp49
 70
     1
102
RTVSPropertyOp50
 70
     1
102
RTVSPropertyOp51
 70
     0
102
RTVSPropertyOp52
 70
     0
102
RTVSPropertyOp53
 70
     1
102
RTVSPropertyOp54
 70
     1
102
RTVSPropertyOp55
 70
     1
102
RTVSPropertyOp56
 70
     1
102
RTVSPropertyOp57
 70
     1
102
RTVSPost2010Prop28
280
     0
102
RTVSPost2010PropOp28
 70
     1
102
RTVSPost2010Prop29
280
     1
102
RTVSPost2010PropOp29
 70
     1
102
RTVSPost2010Prop30
280
     1
102
RTVSPost2010PropOp30
 70
     1
102
RTVSPost2010Prop31
280
     0
102
RTVSPost2010PropOp31
 70
     1
102
RTVSPost2010Prop32
280
     0
102
RTVSPost2010PropOp32
 70
     1
102
RTVSPost2010Prop33
280
     0
102
RTVSPost2010PropOp33
 70
     1
102
RTVSPost2010Prop34
280
     0
102
RTVSPost2010PropOp34
 70
     1
102
RTVSPost2010Prop35
280
     0
102
RTVSPost2010PropOp35
 70
     1
102
RTVSPost2010Prop36
280
     0
102
RTVSPost2010PropOp36
 70
     1
102
RTVSPost2010Prop37
 90
       50
102
RTVSPost2010PropOp37
 70
     1
102
RTVSPost2010Prop38
140
0.0
102
RTVSPost2010PropOp38
 70
     1
102
RTVSPost2010Prop39
140
1.0
102
RTVSPost2010PropOp39
 70
     1
102
RTVSPost2010Prop40
 90
        0
102
RTVSPost2010PropOp40
 70
     1
102
RTVSPost2010Prop41ColorIndex
 90
       18
102
RTVSPost2010Prop41ColorRGB
 90
        0
102
RTVSPost2010PropOp41
 70
     1
102
RTVSPost2010Prop42
 90
       50
102
RTVSPost2010PropOp42
 70
     1
102
RTVSPost2010Prop43
 90
        3
102
RTVSPost2010PropOp43
 70
     1
102
RTVSPost2010Prop44ColorIndex
 90
        5
102
RTVSPost2010Prop44ColorRGB
 90
      255
102
RTVSPost2010PropOp44
 70
     1
102
RTVSPost2010Prop45
280
     0
102
RTVSPost2010PropOp45
 70
     1
102
RTVSPost2010Prop46
 90
       50
102
RTVSPost2010PropOp46
 70
     1
102
RTVSPost2010Prop47
 90
       50
102
RTVSPost2010PropOp47
 70
     1
102
RTVSPost2010Prop48
 90
       50
102
RTVSPost2010PropOp48
 70
     1
102
RTVSPost2010Prop49
280
     0
102
RTVSPost2010PropOp49
 70
     1
102
RTVSPost2010Prop50
 90
       50
102
RTVSPost2010PropOp50
 70
     1
102
RTVSPost2010Prop51ColorIndex
 90
      256
102
RTVSPost2010Prop51ColorRGB
 90
-16777216
102
RTVSPost2010PropOp51
 70
     0
102
RTVSPost2010Prop52
140
1.0
102
RTVSPost2010PropOp52
 70
     0
102
RTVSPost2010Prop53
 90
        2
102
RTVSPost2010PropOp53
 70
     1
102
RTVSPost2010Prop54
  1
strokes_ogs.tif
102
RTVSPost2010PropOp54
 70
     1
102
RTVSPost2010Prop55
280
     0
102
RTVSPost2010PropOp55
 70
     1
102
RTVSPost2010Prop56
140
1.0
102
RTVSPost2010PropOp56
 70
     1
102
RTVSPost2010Prop57
140
1.0
102
RTVSPost2010PropOp57
 70
     1
  0
XRECORD
  5
1EB
102
{ACAD_REACTORS
330
1EA
102
}
330
1EA
100
AcDbXrecord
280
     1
102
RTVSPropertyOp0
 70
     0
102
RTVSPropertyOp1
 70
     0
102
RTVSPropertyOp2
 70
     0
102
RTVSPropertyOp3
 70
     0
102
RTVSPropertyOp4
 70
     0
102
RTVSPropertyOp5
 70
     0
102
RTVSPropertyOp6
 70
     0
102
RTVSPropertyOp7
 70
     0
102
RTVSPropertyOp8
 70
     0
102
RTVSPropertyOp9
 70
     0
102
RTVSPropertyOp10
 70
     0
102
RTVSPropertyOp11
 70
     0
102
RTVSPropertyOp12
 70
     0
102
RTVSPropertyOp13
 70
     0
102
RTVSPropertyOp14
 70
     2
102
RTVSPropertyOp15
 70
     0
102
RTVSPropertyOp16
 70
     0
102
RTVSPropertyOp17
 70
     0
102
RTVSPropertyOp18
 70
     0
102
RTVSPropertyOp19
 70
     0
102
RTVSPropertyOp20
 70
     0
102
RTVSPropertyOp21
 70
     0
102
RTVSPropertyOp22
 70
     0
102
RTVSPropertyOp23
 70
     0
102
RTVSPropertyOp24
 70
     0
102
RTVSPropertyOp25
 70
     0
102
RTVSPropertyOp26
 70
     0
102
RTVSPropertyOp27
 70
     0
102
RTVSPropertyOp28
 70
     0
102
RTVSPropertyOp29
 70
     0
102
RTVSPropertyOp30
 70
     0
102
RTVSPropertyOp31
 70
     0
102
RTVSPropertyOp32
 70
     0
102
RTVSPropertyOp33
 70
     0
102
RTVSPropertyOp34
 70
     0
102
RTVSPropertyOp35
 70
     0
102
RTVSPropertyOp36
 70
     0
102
RTVSPropertyOp37
 70
     0
102
RTVSPropertyOp38
 70
     0
102
RTVSPropertyOp39
 70
     0
102
RTVSPropertyOp40
 70
     0
102
RTVSPropertyOp41
 70
     0
102
RTVSPropertyOp42
 70
     0
102
RTVSPropertyOp43
 70
     0
102
RTVSPropertyOp44
 70
     0
102
RTVSPropertyOp45
 70
     0
102
RTVSPropertyOp46
 70
     0
102
RTVSPropertyOp47
 70
     0
102
RTVSPropertyOp48
 70
     0
102
RTVSPropertyOp49
 70
     0
102
RTVSPropertyOp50
 70
     0
102
RTVSPropertyOp51
 70
     0
102
RTVSPropertyOp52
 70
     0
102
RTVSPropertyOp53
 70
     0
102
RTVSPropertyOp54
 70
     0
102
RTVSPropertyOp55
 70
     0
102
RTVSPropertyOp56
 70
     0
102
RTVSPropertyOp57
 70
     0
102
RTVSPost2010Prop28
280
     0
102
RTVSPost2010PropOp28
 70
     0
102
RTVSPost2010Prop29
280
     1
102
RTVSPost2010PropOp29
 70
     0
102
RTVSPost2010Prop30
280
     1
102
RTVSPost2010PropOp30
 70
     0
102
RTVSPost2010Prop31
280
     0
102
RTVSPost2010PropOp31
 70
     0
102
RTVSPost2010Prop32
280
     0
102
RTVSPost2010PropOp32
 70
     0
102
RTVSPost2010Prop33
280
     0
102
RTVSPost2010PropOp33
 70
     0
102
RTVSPost2010Prop34
280
     0
102
RTVSPost2010PropOp34
 70
     0
102
RTVSPost2010Prop35
280
     0
102
RTVSPost2010PropOp35
 70
     0
102
RTVSPost2010Prop36
280
     0
102
RTVSPost2010PropOp36
 70
     0
102
RTVSPost2010Prop37
 90
       50
102
RTVSPost2010PropOp37
 70
     0
102
RTVSPost2010Prop38
140
0.0
102
RTVSPost2010PropOp38
 70
     0
102
RTVSPost2010Prop39
140
1.0
102
RTVSPost2010PropOp39
 70
     0
102
RTVSPost2010Prop40
 90
        0
102
RTVSPost2010PropOp40
 70
     0
102
RTVSPost2010Prop41ColorIndex
 90
       18
102
RTVSPost2010Prop41ColorRGB
 90
        0
102
RTVSPost2010PropOp41
 70
     0
102
RTVSPost2010Prop42
 90
       50
102
RTVSPost2010PropOp42
 70
     0
102
RTVSPost2010Prop43
 90
        3
102
RTVSPost2010PropOp43
 70
     0
102
RTVSPost2010Prop44ColorIndex
 90
        5
102
RTVSPost2010Prop44ColorRGB
 90
      255
102
RTVSPost2010PropOp44
 70
     0
102
RTVSPost2010Prop45
280
     0
102
RTVSPost2010PropOp45
 70
     0
102
RTVSPost2010Prop46
 90
       50
102
RTVSPost2010PropOp46
 70
     0
102
RTVSPost2010Prop47
 90
       50
102
RTVSPost2010PropOp47
 70
     0
102
RTVSPost2010Prop48
 90
       50
102
RTVSPost2010PropOp48
 70
     0
102
RTVSPost2010Prop49
280
     0
102
RTVSPost2010PropOp49
 70
     0
102
RTVSPost2010Prop50
 90
       50
102
RTVSPost2010PropOp50
 70
     0
102
RTVSPost2010Prop51ColorIndex
 90
      256
102
RTVSPost2010Prop51ColorRGB
 90
-16777216
102
RTVSPost2010PropOp51
 70
     0
102
RTVSPost2010Prop52
140
1.0
102
RTVSPost2010PropOp52
 70
     0
102
RTVSPost2010Prop53
 90
        2
102
RTVSPost2010PropOp53
 70
     0
102
RTVSPost2010Prop54
  1
strokes_ogs.tif
102
RTVSPost2010PropOp54
 70
     0
102
RTVSPost2010Prop55
280
     0
102
RTVSPost2010PropOp55
 70
     0
102
RTVSPost2010Prop56
140
1.0
102
RTVSPost2010PropOp56
 70
     0
102
RTVSPost2010Prop57
140
1.0
102
RTVSPost2010PropOp57
 70
     0
  0
XRECORD
  5
1E3
102
{ACAD_REACTORS
330
1E2
102
}
330
1E2
100
AcDbXrecord
280
     1
102
RTVSPropertyOp0
 70
     1
102
RTVSPropertyOp1
 70
     1
102
RTVSPropertyOp2
 70
     1
102
RTVSPropertyOp3
 70
     1
102
RTVSPropertyOp4
 70
     1
102
RTVSPropertyOp5
 70
     1
102
RTVSPropertyOp6
 70
     1
102
RTVSPropertyOp7
 70
     1
102
RTVSPropertyOp8
 70
     1
102
RTVSPropertyOp9
 70
     1
102
RTVSPropertyOp10
 70
     1
102
RTVSPropertyOp11
 70
     1
102
RTVSPropertyOp12
 70
     1
102
RTVSPropertyOp13
 70
     1
102
RTVSPropertyOp14
 70
     1
102
RTVSPropertyOp15
 70
     1
102
RTVSPropertyOp16
 70
     1
102
RTVSPropertyOp17
 70
     1
102
RTVSPropertyOp18
 70
     1
102
RTVSPropertyOp19
 70
     1
102
RTVSPropertyOp20
 70
     1
102
RTVSPropertyOp21
 70
     1
102
RTVSPropertyOp22
 70
     1
102
RTVSPropertyOp23
 70
     1
102
RTVSPropertyOp24
 70
     1
102
RTVSPropertyOp25
 70
     1
102
RTVSPropertyOp26
 70
     1
102
RTVSPropertyOp27
 70
     1
102
RTVSPropertyOp28
 70
     1
102
RTVSPropertyOp29
 70
     1
102
RTVSPropertyOp30
 70
     1
102
RTVSPropertyOp31
 70
     1
102
RTVSPropertyOp32
 70
     1
102
RTVSPropertyOp33
 70
     1
102
RTVSPropertyOp34
 70
     1
102
RTVSPropertyOp35
 70
     1
102
RTVSPropertyOp36
 70
     1
102
RTVSPropertyOp37
 70
     1
102
RTVSPropertyOp38
 70
     1
102
RTVSPropertyOp39
 70
     1
102
RTVSPropertyOp40
 70
     1
102
RTVSPropertyOp41
 70
     1
102
RTVSPropertyOp42
 70
     1
102
RTVSPropertyOp43
 70
     1
102
RTVSPropertyOp44
 70
     1
102
RTVSPropertyOp45
 70
     1
102
RTVSPropertyOp46
 70
     1
102
RTVSPropertyOp47
 70
     1
102
RTVSPropertyOp48
 70
     1
102
RTVSPropertyOp49
 70
     1
102
RTVSPropertyOp50
 70
     1
102
RTVSPropertyOp51
 70
     0
102
RTVSPropertyOp52
 70
     0
102
RTVSPropertyOp53
 70
     1
102
RTVSPropertyOp54
 70
     1
102
RTVSPropertyOp55
 70
     1
102
RTVSPropertyOp56
 70
     1
102
RTVSPropertyOp57
 70
     1
102
RTVSPost2010Prop28
280
     0
102
RTVSPost2010PropOp28
 70
     1
102
RTVSPost2010Prop29
280
     1
102
RTVSPost2010PropOp29
 70
     1
102
RTVSPost2010Prop30
280
     1
102
RTVSPost2010PropOp30
 70
     1
102
RTVSPost2010Prop31
280
     0
102
RTVSPost2010PropOp31
 70
     1
102
RTVSPost2010Prop32
280
     0
102
RTVSPost2010PropOp32
 70
     1
102
RTVSPost2010Prop33
280
     0
102
RTVSPost2010PropOp33
 70
     1
102
RTVSPost2010Prop34
280
     0
102
RTVSPost2010PropOp34
 70
     1
102
RTVSPost2010Prop35
280
     0
102
RTVSPost2010PropOp35
 70
     1
102
RTVSPost2010Prop36
280
     0
102
RTVSPost2010PropOp36
 70
     1
102
RTVSPost2010Prop37
 90
       50
102
RTVSPost2010PropOp37
 70
     1
102
RTVSPost2010Prop38
140
0.0
102
RTVSPost2010PropOp38
 70
     1
102
RTVSPost2010Prop39
140
1.0
102
RTVSPost2010PropOp39
 70
     1
102
RTVSPost2010Prop40
 90
        0
102
RTVSPost2010PropOp40
 70
     1
102
RTVSPost2010Prop41ColorIndex
 90
       18
102
RTVSPost2010Prop41ColorRGB
 90
        0
102
RTVSPost2010PropOp41
 70
     1
102
RTVSPost2010Prop42
 90
       50
102
RTVSPost2010PropOp42
 70
     1
102
RTVSPost2010Prop43
 90
        3
102
RTVSPost2010PropOp43
 70
     1
102
RTVSPost2010Prop44ColorIndex
 90
        5
102
RTVSPost2010Prop44ColorRGB
 90
      255
102
RTVSPost2010PropOp44
 70
     1
102
RTVSPost2010Prop45
280
     0
102
RTVSPost2010PropOp45
 70
     1
102
RTVSPost2010Prop46
 90
       50
102
RTVSPost2010PropOp46
 70
     1
102
RTVSPost2010Prop47
 90
       50
102
RTVSPost2010PropOp47
 70
     1
102
RTVSPost2010Prop48
 90
       50
102
RTVSPost2010PropOp48
 70
     1
102
RTVSPost2010Prop49
280
     0
102
RTVSPost2010PropOp49
 70
     1
102
RTVSPost2010Prop50
 90
       50
102
RTVSPost2010PropOp50
 70
     1
102
RTVSPost2010Prop51ColorIndex
 90
      256
102
RTVSPost2010Prop51ColorRGB
 90
-16777216
102
RTVSPost2010PropOp51
 70
     0
102
RTVSPost2010Prop52
140
1.0
102
RTVSPost2010PropOp52
 70
     0
102
RTVSPost2010Prop53
 90
        2
102
RTVSPost2010PropOp53
 70
     1
102
RTVSPost2010Prop54
  1
strokes_ogs.tif
102
RTVSPost2010PropOp54
 70
     1
102
RTVSPost2010Prop55
280
     0
102
RTVSPost2010PropOp55
 70
     1
102
RTVSPost2010Prop56
140
1.0
102
RTVSPost2010PropOp56
 70
     1
102
RTVSPost2010Prop57
140
1.0
102
RTVSPost2010PropOp57
 70
     1
  0
XRECORD
  5
1C7
102
{ACAD_REACTORS
330
1C6
102
}
330
1C6
100
AcDbXrecord
280
     1
102
RTVSPropertyOp0
 70
     1
102
RTVSPropertyOp1
 70
     1
102
RTVSPropertyOp2
 70
     1
102
RTVSPropertyOp3
 70
     1
102
RTVSPropertyOp4
 70
     1
102
RTVSPropertyOp5
 70
     1
102
RTVSPropertyOp6
 70
     1
102
RTVSPropertyOp7
 70
     1
102
RTVSPropertyOp8
 70
     1
102
RTVSPropertyOp9
 70
     1
102
RTVSPropertyOp10
 70
     1
102
RTVSPropertyOp11
 70
     1
102
RTVSPropertyOp12
 70
     1
102
RTVSPropertyOp13
 70
     1
102
RTVSPropertyOp14
 70
     1
102
RTVSPropertyOp15
 70
     1
102
RTVSPropertyOp16
 70
     1
102
RTVSPropertyOp17
 70
     1
102
RTVSPropertyOp18
 70
     1
102
RTVSPropertyOp19
 70
     1
102
RTVSPropertyOp20
 70
     1
102
RTVSPropertyOp21
 70
     1
102
RTVSPropertyOp22
 70
     1
102
RTVSPropertyOp23
 70
     1
102
RTVSPropertyOp24
 70
     1
102
RTVSPropertyOp25
 70
     1
102
RTVSPropertyOp26
 70
     1
102
RTVSPropertyOp27
 70
     1
102
RTVSPropertyOp28
 70
     1
102
RTVSPropertyOp29
 70
     1
102
RTVSPropertyOp30
 70
     1
102
RTVSPropertyOp31
 70
     1
102
RTVSPropertyOp32
 70
     1
102
RTVSPropertyOp33
 70
     1
102
RTVSPropertyOp34
 70
     1
102
RTVSPropertyOp35
 70
     1
102
RTVSPropertyOp36
 70
     1
102
RTVSPropertyOp37
 70
     1
102
RTVSPropertyOp38
 70
     1
102
RTVSPropertyOp39
 70
     1
102
RTVSPropertyOp40
 70
     1
102
RTVSPropertyOp41
 70
     1
102
RTVSPropertyOp42
 70
     1
102
RTVSPropertyOp43
 70
     1
102
RTVSPropertyOp44
 70
     1
102
RTVSPropertyOp45
 70
     1
102
RTVSPropertyOp46
 70
     1
102
RTVSPropertyOp47
 70
     1
102
RTVSPropertyOp48
 70
     1
102
RTVSPropertyOp49
 70
     1
102
RTVSPropertyOp50
 70
     1
102
RTVSPropertyOp51
 70
     0
102
RTVSPropertyOp52
 70
     0
102
RTVSPropertyOp53
 70
     1
102
RTVSPropertyOp54
 70
     1
102
RTVSPropertyOp55
 70
     1
102
RTVSPropertyOp56
 70
     1
102
RTVSPropertyOp57
 70
     1
102
RTVSPost2010Prop28
280
     0
102
RTVSPost2010PropOp28
 70
     1
102
RTVSPost2010Prop29
280
     1
102
RTVSPost2010PropOp29
 70
     1
102
RTVSPost2010Prop30
280
     1
102
RTVSPost2010PropOp30
 70
     1
102
RTVSPost2010Prop31
280
     0
102
RTVSPost2010PropOp31
 70
     1
102
RTVSPost2010Prop32
280
     0
102
RTVSPost2010PropOp32
 70
     1
102
RTVSPost2010Prop33
280
     0
102
RTVSPost2010PropOp33
 70
     1
102
RTVSPost2010Prop34
280
     0
102
RTVSPost2010PropOp34
 70
     1
102
RTVSPost2010Prop35
280
     0
102
RTVSPost2010PropOp35
 70
     1
102
RTVSPost2010Prop36
280
     0
102
RTVSPost2010PropOp36
 70
     1
102
RTVSPost2010Prop37
 90
       50
102
RTVSPost2010PropOp37
 70
     1
102
RTVSPost2010Prop38
140
0.0
102
RTVSPost2010PropOp38
 70
     1
102
RTVSPost2010Prop39
140
1.0
102
RTVSPost2010PropOp39
 70
     1
102
RTVSPost2010Prop40
 90
        0
102
RTVSPost2010PropOp40
 70
     1
102
RTVSPost2010Prop41ColorIndex
 90
       18
102
RTVSPost2010Prop41ColorRGB
 90
        0
102
RTVSPost2010PropOp41
 70
     1
102
RTVSPost2010Prop42
 90
       50
102
RTVSPost2010PropOp42
 70
     1
102
RTVSPost2010Prop43
 90
        3
102
RTVSPost2010PropOp43
 70
     1
102
RTVSPost2010Prop44ColorIndex
 90
        5
102
RTVSPost2010Prop44ColorRGB
 90
      255
102
RTVSPost2010PropOp44
 70
     1
102
RTVSPost2010Prop45
280
     0
102
RTVSPost2010PropOp45
 70
     1
102
RTVSPost2010Prop46
 90
       50
102
RTVSPost2010PropOp46
 70
     1
102
RTVSPost2010Prop47
 90
       50
102
RTVSPost2010PropOp47
 70
     1
102
RTVSPost2010Prop48
 90
       50
102
RTVSPost2010PropOp48
 70
     1
102
RTVSPost2010Prop49
280
     0
102
RTVSPost2010PropOp49
 70
     1
102
RTVSPost2010Prop50
 90
       50
102
RTVSPost2010PropOp50
 70
     1
102
RTVSPost2010Prop51ColorIndex
 90
      256
102
RTVSPost2010Prop51ColorRGB
 90
-16777216
102
RTVSPost2010PropOp51
 70
     0
102
RTVSPost2010Prop52
140
1.0
102
RTVSPost2010PropOp52
 70
     0
102
RTVSPost2010Prop53
 90
        2
102
RTVSPost2010PropOp53
 70
     1
102
RTVSPost2010Prop54
  1
strokes_ogs.tif
102
RTVSPost2010PropOp54
 70
     1
102
RTVSPost2010Prop55
280
     0
102
RTVSPost2010PropOp55
 70
     1
102
RTVSPost2010Prop56
140
1.0
102
RTVSPost2010PropOp56
 70
     1
102
RTVSPost2010Prop57
140
1.0
102
RTVSPost2010PropOp57
 70
     1
  0
XRECORD
  5
1C9
102
{ACAD_REACTORS
330
1C8
102
}
330
1C8
100
AcDbXrecord
280
     1
102
RTVSPropertyOp0
 70
     1
102
RTVSPropertyOp1
 70
     1
102
RTVSPropertyOp2
 70
     1
102
RTVSPropertyOp3
 70
     1
102
RTVSPropertyOp4
 70
     1
102
RTVSPropertyOp5
 70
     1
102
RTVSPropertyOp6
 70
     1
102
RTVSPropertyOp7
 70
     1
102
RTVSPropertyOp8
 70
     1
102
RTVSPropertyOp9
 70
     1
102
RTVSPropertyOp10
 70
     1
102
RTVSPropertyOp11
 70
     1
102
RTVSPropertyOp12
 70
     1
102
RTVSPropertyOp13
 70
     1
102
RTVSPropertyOp14
 70
     1
102
RTVSPropertyOp15
 70
     1
102
RTVSPropertyOp16
 70
     1
102
RTVSPropertyOp17
 70
     1
102
RTVSPropertyOp18
 70
     1
102
RTVSPropertyOp19
 70
     1
102
RTVSPropertyOp20
 70
     1
102
RTVSPropertyOp21
 70
     1
102
RTVSPropertyOp22
 70
     1
102
RTVSPropertyOp23
 70
     1
102
RTVSPropertyOp24
 70
     1
102
RTVSPropertyOp25
 70
     1
102
RTVSPropertyOp26
 70
     1
102
RTVSPropertyOp27
 70
     1
102
RTVSPropertyOp28
 70
     1
102
RTVSPropertyOp29
 70
     1
102
RTVSPropertyOp30
 70
     1
102
RTVSPropertyOp31
 70
     1
102
RTVSPropertyOp32
 70
     1
102
RTVSPropertyOp33
 70
     1
102
RTVSPropertyOp34
 70
     1
102
RTVSPropertyOp35
 70
     1
102
RTVSPropertyOp36
 70
     1
102
RTVSPropertyOp37
 70
     1
102
RTVSPropertyOp38
 70
     1
102
RTVSPropertyOp39
 70
     1
102
RTVSPropertyOp40
 70
     1
102
RTVSPropertyOp41
 70
     1
102
RTVSPropertyOp42
 70
     1
102
RTVSPropertyOp43
 70
     1
102
RTVSPropertyOp44
 70
     1
102
RTVSPropertyOp45
 70
     1
102
RTVSPropertyOp46
 70
     1
102
RTVSPropertyOp47
 70
     1
102
RTVSPropertyOp48
 70
     1
102
RTVSPropertyOp49
 70
     1
102
RTVSPropertyOp50
 70
     1
102
RTVSPropertyOp51
 70
     0
102
RTVSPropertyOp52
 70
     0
102
RTVSPropertyOp53
 70
     1
102
RTVSPropertyOp54
 70
     1
102
RTVSPropertyOp55
 70
     1
102
RTVSPropertyOp56
 70
     1
102
RTVSPropertyOp57
 70
     1
102
RTVSPost2010Prop28
280
     0
102
RTVSPost2010PropOp28
 70
     1
102
RTVSPost2010Prop29
280
     1
102
RTVSPost2010PropOp29
 70
     1
102
RTVSPost2010Prop30
280
     1
102
RTVSPost2010PropOp30
 70
     1
102
RTVSPost2010Prop31
280
     0
102
RTVSPost2010PropOp31
 70
     1
102
RTVSPost2010Prop32
280
     0
102
RTVSPost2010PropOp32
 70
     1
102
RTVSPost2010Prop33
280
     0
102
RTVSPost2010PropOp33
 70
     1
102
RTVSPost2010Prop34
280
     0
102
RTVSPost2010PropOp34
 70
     1
102
RTVSPost2010Prop35
280
     0
102
RTVSPost2010PropOp35
 70
     1
102
RTVSPost2010Prop36
280
     0
102
RTVSPost2010PropOp36
 70
     1
102
RTVSPost2010Prop37
 90
       50
102
RTVSPost2010PropOp37
 70
     1
102
RTVSPost2010Prop38
140
0.0
102
RTVSPost2010PropOp38
 70
     1
102
RTVSPost2010Prop39
140
1.0
102
RTVSPost2010PropOp39
 70
     1
102
RTVSPost2010Prop40
 90
        0
102
RTVSPost2010PropOp40
 70
     1
102
RTVSPost2010Prop41ColorIndex
 90
       18
102
RTVSPost2010Prop41ColorRGB
 90
        0
102
RTVSPost2010PropOp41
 70
     1
102
RTVSPost2010Prop42
 90
       50
102
RTVSPost2010PropOp42
 70
     1
102
RTVSPost2010Prop43
 90
        3
102
RTVSPost2010PropOp43
 70
     1
102
RTVSPost2010Prop44ColorIndex
 90
        5
102
RTVSPost2010Prop44ColorRGB
 90
      255
102
RTVSPost2010PropOp44
 70
     1
102
RTVSPost2010Prop45
280
     0
102
RTVSPost2010PropOp45
 70
     1
102
RTVSPost2010Prop46
 90
       50
102
RTVSPost2010PropOp46
 70
     1
102
RTVSPost2010Prop47
 90
       50
102
RTVSPost2010PropOp47
 70
     1
102
RTVSPost2010Prop48
 90
       50
102
RTVSPost2010PropOp48
 70
     1
102
RTVSPost2010Prop49
280
     0
102
RTVSPost2010PropOp49
 70
     1
102
RTVSPost2010Prop50
 90
       50
102
RTVSPost2010PropOp50
 70
     1
102
RTVSPost2010Prop51ColorIndex
 90
      256
102
RTVSPost2010Prop51ColorRGB
 90
-16777216
102
RTVSPost2010PropOp51
 70
     0
102
RTVSPost2010Prop52
140
1.0
102
RTVSPost2010PropOp52
 70
     0
102
RTVSPost2010Prop53
 90
        2
102
RTVSPost2010PropOp53
 70
     1
102
RTVSPost2010Prop54
  1
strokes_ogs.tif
102
RTVSPost2010PropOp54
 70
     1
102
RTVSPost2010Prop55
280
     0
102
RTVSPost2010PropOp55
 70
     1
102
RTVSPost2010Prop56
140
1.0
102
RTVSPost2010PropOp56
 70
     1
102
RTVSPost2010Prop57
140
1.0
102
RTVSPost2010PropOp57
 70
     1
  0
XRECORD
  5
1CB
102
{ACAD_REACTORS
330
1CA
102
}
330
1CA
100
AcDbXrecord
280
     1
102
RTVSPropertyOp0
 70
     1
102
RTVSPropertyOp1
 70
     1
102
RTVSPropertyOp2
 70
     1
102
RTVSPropertyOp3
 70
     1
102
RTVSPropertyOp4
 70
     1
102
RTVSPropertyOp5
 70
     1
102
RTVSPropertyOp6
 70
     1
102
RTVSPropertyOp7
 70
     1
102
RTVSPropertyOp8
 70
     1
102
RTVSPropertyOp9
 70
     1
102
RTVSPropertyOp10
 70
     1
102
RTVSPropertyOp11
 70
     1
102
RTVSPropertyOp12
 70
     1
102
RTVSPropertyOp13
 70
     1
102
RTVSPropertyOp14
 70
     1
102
RTVSPropertyOp15
 70
     1
102
RTVSPropertyOp16
 70
     1
102
RTVSPropertyOp17
 70
     1
102
RTVSPropertyOp18
 70
     1
102
RTVSPropertyOp19
 70
     1
102
RTVSPropertyOp20
 70
     1
102
RTVSPropertyOp21
 70
     1
102
RTVSPropertyOp22
 70
     1
102
RTVSPropertyOp23
 70
     1
102
RTVSPropertyOp24
 70
     1
102
RTVSPropertyOp25
 70
     1
102
RTVSPropertyOp26
 70
     1
102
RTVSPropertyOp27
 70
     1
102
RTVSPropertyOp28
 70
     1
102
RTVSPropertyOp29
 70
     1
102
RTVSPropertyOp30
 70
     1
102
RTVSPropertyOp31
 70
     1
102
RTVSPropertyOp32
 70
     1
102
RTVSPropertyOp33
 70
     1
102
RTVSPropertyOp34
 70
     1
102
RTVSPropertyOp35
 70
     1
102
RTVSPropertyOp36
 70
     1
102
RTVSPropertyOp37
 70
     1
102
RTVSPropertyOp38
 70
     1
102
RTVSPropertyOp39
 70
     1
102
RTVSPropertyOp40
 70
     1
102
RTVSPropertyOp41
 70
     1
102
RTVSPropertyOp42
 70
     1
102
RTVSPropertyOp43
 70
     1
102
RTVSPropertyOp44
 70
     1
102
RTVSPropertyOp45
 70
     1
102
RTVSPropertyOp46
 70
     1
102
RTVSPropertyOp47
 70
     1
102
RTVSPropertyOp48
 70
     1
102
RTVSPropertyOp49
 70
     1
102
RTVSPropertyOp50
 70
     1
102
RTVSPropertyOp51
 70
     0
102
RTVSPropertyOp52
 70
     0
102
RTVSPropertyOp53
 70
     1
102
RTVSPropertyOp54
 70
     1
102
RTVSPropertyOp55
 70
     1
102
RTVSPropertyOp56
 70
     1
102
RTVSPropertyOp57
 70
     1
102
RTVSPost2010Prop28
280
     0
102
RTVSPost2010PropOp28
 70
     1
102
RTVSPost2010Prop29
280
     1
102
RTVSPost2010PropOp29
 70
     1
102
RTVSPost2010Prop30
280
     1
102
RTVSPost2010PropOp30
 70
     1
102
RTVSPost2010Prop31
280
     0
102
RTVSPost2010PropOp31
 70
     1
102
RTVSPost2010Prop32
280
     0
102
RTVSPost2010PropOp32
 70
     1
102
RTVSPost2010Prop33
280
     0
102
RTVSPost2010PropOp33
 70
     1
102
RTVSPost2010Prop34
280
     0
102
RTVSPost2010PropOp34
 70
     1
102
RTVSPost2010Prop35
280
     0
102
RTVSPost2010PropOp35
 70
     1
102
RTVSPost2010Prop36
280
     0
102
RTVSPost2010PropOp36
 70
     1
102
RTVSPost2010Prop37
 90
       50
102
RTVSPost2010PropOp37
 70
     1
102
RTVSPost2010Prop38
140
0.0
102
RTVSPost2010PropOp38
 70
     1
102
RTVSPost2010Prop39
140
1.0
102
RTVSPost2010PropOp39
 70
     1
102
RTVSPost2010Prop40
 90
        0
102
RTVSPost2010PropOp40
 70
     1
102
RTVSPost2010Prop41ColorIndex
 90
       18
102
RTVSPost2010Prop41ColorRGB
 90
        0
102
RTVSPost2010PropOp41
 70
     1
102
RTVSPost2010Prop42
 90
       50
102
RTVSPost2010PropOp42
 70
     1
102
RTVSPost2010Prop43
 90
        3
102
RTVSPost2010PropOp43
 70
     1
102
RTVSPost2010Prop44ColorIndex
 90
        5
102
RTVSPost2010Prop44ColorRGB
 90
      255
102
RTVSPost2010PropOp44
 70
     1
102
RTVSPost2010Prop45
280
     0
102
RTVSPost2010PropOp45
 70
     1
102
RTVSPost2010Prop46
 90
       50
102
RTVSPost2010PropOp46
 70
     1
102
RTVSPost2010Prop47
 90
       50
102
RTVSPost2010PropOp47
 70
     1
102
RTVSPost2010Prop48
 90
       50
102
RTVSPost2010PropOp48
 70
     1
102
RTVSPost2010Prop49
280
     0
102
RTVSPost2010PropOp49
 70
     1
102
RTVSPost2010Prop50
 90
       50
102
RTVSPost2010PropOp50
 70
     1
102
RTVSPost2010Prop51ColorIndex
 90
      256
102
RTVSPost2010Prop51ColorRGB
 90
-16777216
102
RTVSPost2010PropOp51
 70
     0
102
RTVSPost2010Prop52
140
1.0
102
RTVSPost2010PropOp52
 70
     0
102
RTVSPost2010Prop53
 90
        2
102
RTVSPost2010PropOp53
 70
     1
102
RTVSPost2010Prop54
  1
strokes_ogs.tif
102
RTVSPost2010PropOp54
 70
     1
102
RTVSPost2010Prop55
280
     0
102
RTVSPost2010PropOp55
 70
     1
102
RTVSPost2010Prop56
140
1.0
102
RTVSPost2010PropOp56
 70
     1
102
RTVSPost2010Prop57
140
1.0
102
RTVSPost2010PropOp57
 70
     1
  0
XRECORD
  5
1CD
102
{ACAD_REACTORS
330
1CC
102
}
330
1CC
100
AcDbXrecord
280
     1
102
RTVSPropertyOp0
 70
     1
102
RTVSPropertyOp1
 70
     1
102
RTVSPropertyOp2
 70
     1
102
RTVSPropertyOp3
 70
     1
102
RTVSPropertyOp4
 70
     1
102
RTVSPropertyOp5
 70
     1
102
RTVSPropertyOp6
 70
     1
102
RTVSPropertyOp7
 70
     1
102
RTVSPropertyOp8
 70
     1
102
RTVSPropertyOp9
 70
     1
102
RTVSPropertyOp10
 70
     1
102
RTVSPropertyOp11
 70
     1
102
RTVSPropertyOp12
 70
     1
102
RTVSPropertyOp13
 70
     1
102
RTVSPropertyOp14
 70
     1
102
RTVSPropertyOp15
 70
     1
102
RTVSPropertyOp16
 70
     1
102
RTVSPropertyOp17
 70
     1
102
RTVSPropertyOp18
 70
     1
102
RTVSPropertyOp19
 70
     1
102
RTVSPropertyOp20
 70
     1
102
RTVSPropertyOp21
 70
     1
102
RTVSPropertyOp22
 70
     1
102
RTVSPropertyOp23
 70
     1
102
RTVSPropertyOp24
 70
     1
102
RTVSPropertyOp25
 70
     1
102
RTVSPropertyOp26
 70
     1
102
RTVSPropertyOp27
 70
     1
102
RTVSPropertyOp28
 70
     1
102
RTVSPropertyOp29
 70
     1
102
RTVSPropertyOp30
 70
     1
102
RTVSPropertyOp31
 70
     1
102
RTVSPropertyOp32
 70
     1
102
RTVSPropertyOp33
 70
     1
102
RTVSPropertyOp34
 70
     1
102
RTVSPropertyOp35
 70
     1
102
RTVSPropertyOp36
 70
     1
102
RTVSPropertyOp37
 70
     1
102
RTVSPropertyOp38
 70
     1
102
RTVSPropertyOp39
 70
     1
102
RTVSPropertyOp40
 70
     1
102
RTVSPropertyOp41
 70
     1
102
RTVSPropertyOp42
 70
     1
102
RTVSPropertyOp43
 70
     1
102
RTVSPropertyOp44
 70
     1
102
RTVSPropertyOp45
 70
     1
102
RTVSPropertyOp46
 70
     1
102
RTVSPropertyOp47
 70
     1
102
RTVSPropertyOp48
 70
     1
102
RTVSPropertyOp49
 70
     1
102
RTVSPropertyOp50
 70
     1
102
RTVSPropertyOp51
 70
     0
102
RTVSPropertyOp52
 70
     0
102
RTVSPropertyOp53
 70
     1
102
RTVSPropertyOp54
 70
     1
102
RTVSPropertyOp55
 70
     1
102
RTVSPropertyOp56
 70
     1
102
RTVSPropertyOp57
 70
     1
102
RTVSPost2010Prop28
280
     0
102
RTVSPost2010PropOp28
 70
     1
102
RTVSPost2010Prop29
280
     1
102
RTVSPost2010PropOp29
 70
     1
102
RTVSPost2010Prop30
280
     1
102
RTVSPost2010PropOp30
 70
     1
102
RTVSPost2010Prop31
280
     0
102
RTVSPost2010PropOp31
 70
     1
102
RTVSPost2010Prop32
280
     0
102
RTVSPost2010PropOp32
 70
     1
102
RTVSPost2010Prop33
280
     0
102
RTVSPost2010PropOp33
 70
     1
102
RTVSPost2010Prop34
280
     0
102
RTVSPost2010PropOp34
 70
     1
102
RTVSPost2010Prop35
280
     0
102
RTVSPost2010PropOp35
 70
     1
102
RTVSPost2010Prop36
280
     0
102
RTVSPost2010PropOp36
 70
     1
102
RTVSPost2010Prop37
 90
       50
102
RTVSPost2010PropOp37
 70
     1
102
RTVSPost2010Prop38
140
0.0
102
RTVSPost2010PropOp38
 70
     1
102
RTVSPost2010Prop39
140
1.0
102
RTVSPost2010PropOp39
 70
     1
102
RTVSPost2010Prop40
 90
        0
102
RTVSPost2010PropOp40
 70
     1
102
RTVSPost2010Prop41ColorIndex
 90
       18
102
RTVSPost2010Prop41ColorRGB
 90
        0
102
RTVSPost2010PropOp41
 70
     1
102
RTVSPost2010Prop42
 90
       50
102
RTVSPost2010PropOp42
 70
     1
102
RTVSPost2010Prop43
 90
        3
102
RTVSPost2010PropOp43
 70
     1
102
RTVSPost2010Prop44ColorIndex
 90
        5
102
RTVSPost2010Prop44ColorRGB
 90
      255
102
RTVSPost2010PropOp44
 70
     1
102
RTVSPost2010Prop45
280
     0
102
RTVSPost2010PropOp45
 70
     1
102
RTVSPost2010Prop46
 90
       50
102
RTVSPost2010PropOp46
 70
     1
102
RTVSPost2010Prop47
 90
       50
102
RTVSPost2010PropOp47
 70
     1
102
RTVSPost2010Prop48
 90
       50
102
RTVSPost2010PropOp48
 70
     1
102
RTVSPost2010Prop49
280
     0
102
RTVSPost2010PropOp49
 70
     1
102
RTVSPost2010Prop50
 90
       50
102
RTVSPost2010PropOp50
 70
     1
102
RTVSPost2010Prop51ColorIndex
 90
      256
102
RTVSPost2010Prop51ColorRGB
 90
-16777216
102
RTVSPost2010PropOp51
 70
     0
102
RTVSPost2010Prop52
140
1.0
102
RTVSPost2010PropOp52
 70
     0
102
RTVSPost2010Prop53
 90
        2
102
RTVSPost2010PropOp53
 70
     1
102
RTVSPost2010Prop54
  1
strokes_ogs.tif
102
RTVSPost2010PropOp54
 70
     1
102
RTVSPost2010Prop55
280
     0
102
RTVSPost2010PropOp55
 70
     1
102
RTVSPost2010Prop56
140
1.0
102
RTVSPost2010PropOp56
 70
     1
102
RTVSPost2010Prop57
140
1.0
102
RTVSPost2010PropOp57
 70
     1
  0
XRECORD
  5
1D3
102
{ACAD_REACTORS
330
1D2
102
}
330
1D2
100
AcDbXrecord
280
     1
102
RTVSPropertyOp0
 70
     1
102
RTVSPropertyOp1
 70
     1
102
RTVSPropertyOp2
 70
     1
102
RTVSPropertyOp3
 70
     1
102
RTVSPropertyOp4
 70
     1
102
RTVSPropertyOp5
 70
     1
102
RTVSPropertyOp6
 70
     1
102
RTVSPropertyOp7
 70
     1
102
RTVSPropertyOp8
 70
     1
102
RTVSPropertyOp9
 70
     1
102
RTVSPropertyOp10
 70
     1
102
RTVSPropertyOp11
 70
     1
102
RTVSPropertyOp12
 70
     1
102
RTVSPropertyOp13
 70
     1
102
RTVSPropertyOp14
 70
     1
102
RTVSPropertyOp15
 70
     1
102
RTVSPropertyOp16
 70
     1
102
RTVSPropertyOp17
 70
     1
102
RTVSPropertyOp18
 70
     1
102
RTVSPropertyOp19
 70
     1
102
RTVSPropertyOp20
 70
     1
102
RTVSPropertyOp21
 70
     1
102
RTVSPropertyOp22
 70
     1
102
RTVSPropertyOp23
 70
     1
102
RTVSPropertyOp24
 70
     1
102
RTVSPropertyOp25
 70
     1
102
RTVSPropertyOp26
 70
     1
102
RTVSPropertyOp27
 70
     1
102
RTVSPropertyOp28
 70
     1
102
RTVSPropertyOp29
 70
     1
102
RTVSPropertyOp30
 70
     1
102
RTVSPropertyOp31
 70
     1
102
RTVSPropertyOp32
 70
     1
102
RTVSPropertyOp33
 70
     1
102
RTVSPropertyOp34
 70
     1
102
RTVSPropertyOp35
 70
     1
102
RTVSPropertyOp36
 70
     1
102
RTVSPropertyOp37
 70
     1
102
RTVSPropertyOp38
 70
     1
102
RTVSPropertyOp39
 70
     1
102
RTVSPropertyOp40
 70
     1
102
RTVSPropertyOp41
 70
     1
102
RTVSPropertyOp42
 70
     1
102
RTVSPropertyOp43
 70
     1
102
RTVSPropertyOp44
 70
     1
102
RTVSPropertyOp45
 70
     1
102
RTVSPropertyOp46
 70
     1
102
RTVSPropertyOp47
 70
     1
102
RTVSPropertyOp48
 70
     1
102
RTVSPropertyOp49
 70
     1
102
RTVSPropertyOp50
 70
     1
102
RTVSPropertyOp51
 70
     0
102
RTVSPropertyOp52
 70
     0
102
RTVSPropertyOp53
 70
     1
102
RTVSPropertyOp54
 70
     1
102
RTVSPropertyOp55
 70
     1
102
RTVSPropertyOp56
 70
     1
102
RTVSPropertyOp57
 70
     1
102
RTVSPost2010Prop28
280
     0
102
RTVSPost2010PropOp28
 70
     1
102
RTVSPost2010Prop29
280
     1
102
RTVSPost2010PropOp29
 70
     1
102
RTVSPost2010Prop30
280
     1
102
RTVSPost2010PropOp30
 70
     1
102
RTVSPost2010Prop31
280
     0
102
RTVSPost2010PropOp31
 70
     1
102
RTVSPost2010Prop32
280
     0
102
RTVSPost2010PropOp32
 70
     1
102
RTVSPost2010Prop33
280
     0
102
RTVSPost2010PropOp33
 70
     1
102
RTVSPost2010Prop34
280
     0
102
RTVSPost2010PropOp34
 70
     1
102
RTVSPost2010Prop35
280
     0
102
RTVSPost2010PropOp35
 70
     1
102
RTVSPost2010Prop36
280
     0
102
RTVSPost2010PropOp36
 70
     1
102
RTVSPost2010Prop37
 90
       50
102
RTVSPost2010PropOp37
 70
     1
102
RTVSPost2010Prop38
140
0.0
102
RTVSPost2010PropOp38
 70
     1
102
RTVSPost2010Prop39
140
1.0
102
RTVSPost2010PropOp39
 70
     1
102
RTVSPost2010Prop40
 90
        0
102
RTVSPost2010PropOp40
 70
     1
102
RTVSPost2010Prop41ColorIndex
 90
       18
102
RTVSPost2010Prop41ColorRGB
 90
        0
102
RTVSPost2010PropOp41
 70
     1
102
RTVSPost2010Prop42
 90
       50
102
RTVSPost2010PropOp42
 70
     1
102
RTVSPost2010Prop43
 90
        3
102
RTVSPost2010PropOp43
 70
     1
102
RTVSPost2010Prop44ColorIndex
 90
        5
102
RTVSPost2010Prop44ColorRGB
 90
      255
102
RTVSPost2010PropOp44
 70
     1
102
RTVSPost2010Prop45
280
     0
102
RTVSPost2010PropOp45
 70
     1
102
RTVSPost2010Prop46
 90
       50
102
RTVSPost2010PropOp46
 70
     1
102
RTVSPost2010Prop47
 90
       50
102
RTVSPost2010PropOp47
 70
     1
102
RTVSPost2010Prop48
 90
       50
102
RTVSPost2010PropOp48
 70
     1
102
RTVSPost2010Prop49
280
     0
102
RTVSPost2010PropOp49
 70
     1
102
RTVSPost2010Prop50
 90
       50
102
RTVSPost2010PropOp50
 70
     1
102
RTVSPost2010Prop51ColorIndex
 90
      256
102
RTVSPost2010Prop51ColorRGB
 90
-16777216
102
RTVSPost2010PropOp51
 70
     0
102
RTVSPost2010Prop52
140
1.0
102
RTVSPost2010PropOp52
 70
     0
102
RTVSPost2010Prop53
 90
        2
102
RTVSPost2010PropOp53
 70
     1
102
RTVSPost2010Prop54
  1
strokes_ogs.tif
102
RTVSPost2010PropOp54
 70
     1
102
RTVSPost2010Prop55
280
     0
102
RTVSPost2010PropOp55
 70
     1
102
RTVSPost2010Prop56
140
1.0
102
RTVSPost2010PropOp56
 70
     1
102
RTVSPost2010Prop57
140
1.0
102
RTVSPost2010PropOp57
 70
     1
  0
XRECORD
  5
1E7
102
{ACAD_REACTORS
330
1E6
102
}
330
1E6
100
AcDbXrecord
280
     1
102
RTVSPropertyOp0
 70
     0
102
RTVSPropertyOp1
 70
     0
102
RTVSPropertyOp2
 70
     0
102
RTVSPropertyOp3
 70
     0
102
RTVSPropertyOp4
 70
     0
102
RTVSPropertyOp5
 70
     0
102
RTVSPropertyOp6
 70
     0
102
RTVSPropertyOp7
 70
     0
102
RTVSPropertyOp8
 70
     0
102
RTVSPropertyOp9
 70
     0
102
RTVSPropertyOp10
 70
     0
102
RTVSPropertyOp11
 70
     0
102
RTVSPropertyOp12
 70
     0
102
RTVSPropertyOp13
 70
     0
102
RTVSPropertyOp14
 70
     2
102
RTVSPropertyOp15
 70
     0
102
RTVSPropertyOp16
 70
     0
102
RTVSPropertyOp17
 70
     0
102
RTVSPropertyOp18
 70
     0
102
RTVSPropertyOp19
 70
     0
102
RTVSPropertyOp20
 70
     0
102
RTVSPropertyOp21
 70
     0
102
RTVSPropertyOp22
 70
     0
102
RTVSPropertyOp23
 70
     0
102
RTVSPropertyOp24
 70
     0
102
RTVSPropertyOp25
 70
     0
102
RTVSPropertyOp26
 70
     0
102
RTVSPropertyOp27
 70
     0
102
RTVSPropertyOp28
 70
     0
102
RTVSPropertyOp29
 70
     0
102
RTVSPropertyOp30
 70
     0
102
RTVSPropertyOp31
 70
     0
102
RTVSPropertyOp32
 70
     0
102
RTVSPropertyOp33
 70
     0
102
RTVSPropertyOp34
 70
     0
102
RTVSPropertyOp35
 70
     0
102
RTVSPropertyOp36
 70
     0
102
RTVSPropertyOp37
 70
     0
102
RTVSPropertyOp38
 70
     0
102
RTVSPropertyOp39
 70
     0
102
RTVSPropertyOp40
 70
     0
102
RTVSPropertyOp41
 70
     0
102
RTVSPropertyOp42
 70
     0
102
RTVSPropertyOp43
 70
     0
102
RTVSPropertyOp44
 70
     0
102
RTVSPropertyOp45
 70
     0
102
RTVSPropertyOp46
 70
     0
102
RTVSPropertyOp47
 70
     0
102
RTVSPropertyOp48
 70
     0
102
RTVSPropertyOp49
 70
     0
102
RTVSPropertyOp50
 70
     0
102
RTVSPropertyOp51
 70
     0
102
RTVSPropertyOp52
 70
     0
102
RTVSPropertyOp53
 70
     0
102
RTVSPropertyOp54
 70
     0
102
RTVSPropertyOp55
 70
     0
102
RTVSPropertyOp56
 70
     0
102
RTVSPropertyOp57
 70
     0
102
RTVSPost2010Prop28
280
     0
102
RTVSPost2010PropOp28
 70
     0
102
RTVSPost2010Prop29
280
     1
102
RTVSPost2010PropOp29
 70
     0
102
RTVSPost2010Prop30
280
     1
102
RTVSPost2010PropOp30
 70
     0
102
RTVSPost2010Prop31
280
     0
102
RTVSPost2010PropOp31
 70
     0
102
RTVSPost2010Prop32
280
     0
102
RTVSPost2010PropOp32
 70
     0
102
RTVSPost2010Prop33
280
     0
102
RTVSPost2010PropOp33
 70
     0
102
RTVSPost2010Prop34
280
     0
102
RTVSPost2010PropOp34
 70
     0
102
RTVSPost2010Prop35
280
     0
102
RTVSPost2010PropOp35
 70
     0
102
RTVSPost2010Prop36
280
     0
102
RTVSPost2010PropOp36
 70
     0
102
RTVSPost2010Prop37
 90
       50
102
RTVSPost2010PropOp37
 70
     0
102
RTVSPost2010Prop38
140
0.0
102
RTVSPost2010PropOp38
 70
     0
102
RTVSPost2010Prop39
140
1.0
102
RTVSPost2010PropOp39
 70
     0
102
RTVSPost2010Prop40
 90
        0
102
RTVSPost2010PropOp40
 70
     0
102
RTVSPost2010Prop41ColorIndex
 90
       18
102
RTVSPost2010Prop41ColorRGB
 90
        0
102
RTVSPost2010PropOp41
 70
     0
102
RTVSPost2010Prop42
 90
       50
102
RTVSPost2010PropOp42
 70
     0
102
RTVSPost2010Prop43
 90
        3
102
RTVSPost2010PropOp43
 70
     0
102
RTVSPost2010Prop44ColorIndex
 90
        5
102
RTVSPost2010Prop44ColorRGB
 90
      255
102
RTVSPost2010PropOp44
 70
     0
102
RTVSPost2010Prop45
280
     0
102
RTVSPost2010PropOp45
 70
     0
102
RTVSPost2010Prop46
 90
       50
102
RTVSPost2010PropOp46
 70
     0
102
RTVSPost2010Prop47
 90
       50
102
RTVSPost2010PropOp47
 70
     0
102
RTVSPost2010Prop48
 90
       50
102
RTVSPost2010PropOp48
 70
     0
102
RTVSPost2010Prop49
280
     0
102
RTVSPost2010PropOp49
 70
     0
102
RTVSPost2010Prop50
 90
       50
102
RTVSPost2010PropOp50
 70
     0
102
RTVSPost2010Prop51ColorIndex
 90
      256
102
RTVSPost2010Prop51ColorRGB
 90
-16777216
102
RTVSPost2010PropOp51
 70
     0
102
RTVSPost2010Prop52
140
1.0
102
RTVSPost2010PropOp52
 70
     0
102
RTVSPost2010Prop53
 90
        2
102
RTVSPost2010PropOp53
 70
     0
102
RTVSPost2010Prop54
  1
strokes_ogs.tif
102
RTVSPost2010PropOp54
 70
     0
102
RTVSPost2010Prop55
280
     0
102
RTVSPost2010PropOp55
 70
     0
102
RTVSPost2010Prop56
140
1.0
102
RTVSPost2010PropOp56
 70
     0
102
RTVSPost2010Prop57
140
1.0
102
RTVSPost2010PropOp57
 70
     0
  0
XRECORD
  5
1E1
102
{ACAD_REACTORS
330
1E0
102
}
330
1E0
100
AcDbXrecord
280
     1
102
RTVSPropertyOp0
 70
     1
102
RTVSPropertyOp1
 70
     1
102
RTVSPropertyOp2
 70
     1
102
RTVSPropertyOp3
 70
     1
102
RTVSPropertyOp4
 70
     1
102
RTVSPropertyOp5
 70
     1
102
RTVSPropertyOp6
 70
     1
102
RTVSPropertyOp7
 70
     1
102
RTVSPropertyOp8
 70
     1
102
RTVSPropertyOp9
 70
     1
102
RTVSPropertyOp10
 70
     1
102
RTVSPropertyOp11
 70
     1
102
RTVSPropertyOp12
 70
     1
102
RTVSPropertyOp13
 70
     1
102
RTVSPropertyOp14
 70
     1
102
RTVSPropertyOp15
 70
     1
102
RTVSPropertyOp16
 70
     1
102
RTVSPropertyOp17
 70
     1
102
RTVSPropertyOp18
 70
     1
102
RTVSPropertyOp19
 70
     1
102
RTVSPropertyOp20
 70
     1
102
RTVSPropertyOp21
 70
     1
102
RTVSPropertyOp22
 70
     1
102
RTVSPropertyOp23
 70
     1
102
RTVSPropertyOp24
 70
     1
102
RTVSPropertyOp25
 70
     1
102
RTVSPropertyOp26
 70
     1
102
RTVSPropertyOp27
 70
     1
102
RTVSPropertyOp28
 70
     1
102
RTVSPropertyOp29
 70
     1
102
RTVSPropertyOp30
 70
     1
102
RTVSPropertyOp31
 70
     1
102
RTVSPropertyOp32
 70
     1
102
RTVSPropertyOp33
 70
     1
102
RTVSPropertyOp34
 70
     1
102
RTVSPropertyOp35
 70
     1
102
RTVSPropertyOp36
 70
     1
102
RTVSPropertyOp37
 70
     1
102
RTVSPropertyOp38
 70
     1
102
RTVSPropertyOp39
 70
     1
102
RTVSPropertyOp40
 70
     1
102
RTVSPropertyOp41
 70
     1
102
RTVSPropertyOp42
 70
     1
102
RTVSPropertyOp43
 70
     1
102
RTVSPropertyOp44
 70
     1
102
RTVSPropertyOp45
 70
     1
102
RTVSPropertyOp46
 70
     1
102
RTVSPropertyOp47
 70
     1
102
RTVSPropertyOp48
 70
     1
102
RTVSPropertyOp49
 70
     1
102
RTVSPropertyOp50
 70
     1
102
RTVSPropertyOp51
 70
     0
102
RTVSPropertyOp52
 70
     0
102
RTVSPropertyOp53
 70
     1
102
RTVSPropertyOp54
 70
     1
102
RTVSPropertyOp55
 70
     1
102
RTVSPropertyOp56
 70
     1
102
RTVSPropertyOp57
 70
     1
102
RTVSPost2010Prop28
280
     0
102
RTVSPost2010PropOp28
 70
     1
102
RTVSPost2010Prop29
280
     1
102
RTVSPost2010PropOp29
 70
     1
102
RTVSPost2010Prop30
280
     1
102
RTVSPost2010PropOp30
 70
     1
102
RTVSPost2010Prop31
280
     0
102
RTVSPost2010PropOp31
 70
     1
102
RTVSPost2010Prop32
280
     0
102
RTVSPost2010PropOp32
 70
     1
102
RTVSPost2010Prop33
280
     0
102
RTVSPost2010PropOp33
 70
     1
102
RTVSPost2010Prop34
280
     0
102
RTVSPost2010PropOp34
 70
     1
102
RTVSPost2010Prop35
280
     0
102
RTVSPost2010PropOp35
 70
     1
102
RTVSPost2010Prop36
280
     0
102
RTVSPost2010PropOp36
 70
     1
102
RTVSPost2010Prop37
 90
       50
102
RTVSPost2010PropOp37
 70
     1
102
RTVSPost2010Prop38
140
0.0
102
RTVSPost2010PropOp38
 70
     1
102
RTVSPost2010Prop39
140
1.0
102
RTVSPost2010PropOp39
 70
     1
102
RTVSPost2010Prop40
 90
        0
102
RTVSPost2010PropOp40
 70
     1
102
RTVSPost2010Prop41ColorIndex
 90
       18
102
RTVSPost2010Prop41ColorRGB
 90
        0
102
RTVSPost2010PropOp41
 70
     1
102
RTVSPost2010Prop42
 90
       50
102
RTVSPost2010PropOp42
 70
     1
102
RTVSPost2010Prop43
 90
        3
102
RTVSPost2010PropOp43
 70
     1
102
RTVSPost2010Prop44ColorIndex
 90
        5
102
RTVSPost2010Prop44ColorRGB
 90
      255
102
RTVSPost2010PropOp44
 70
     1
102
RTVSPost2010Prop45
280
     0
102
RTVSPost2010PropOp45
 70
     1
102
RTVSPost2010Prop46
 90
       50
102
RTVSPost2010PropOp46
 70
     1
102
RTVSPost2010Prop47
 90
       50
102
RTVSPost2010PropOp47
 70
     1
102
RTVSPost2010Prop48
 90
       50
102
RTVSPost2010PropOp48
 70
     1
102
RTVSPost2010Prop49
280
     0
102
RTVSPost2010PropOp49
 70
     1
102
RTVSPost2010Prop50
 90
       50
102
RTVSPost2010PropOp50
 70
     1
102
RTVSPost2010Prop51ColorIndex
 90
      256
102
RTVSPost2010Prop51ColorRGB
 90
-16777216
102
RTVSPost2010PropOp51
 70
     0
102
RTVSPost2010Prop52
140
1.0
102
RTVSPost2010PropOp52
 70
     0
102
RTVSPost2010Prop53
 90
        2
102
RTVSPost2010PropOp53
 70
     1
102
RTVSPost2010Prop54
  1
strokes_ogs.tif
102
RTVSPost2010PropOp54
 70
     1
102
RTVSPost2010Prop55
280
     0
102
RTVSPost2010PropOp55
 70
     1
102
RTVSPost2010Prop56
140
1.0
102
RTVSPost2010PropOp56
 70
     1
102
RTVSPost2010Prop57
140
1.0
102
RTVSPost2010PropOp57
 70
     1
  0
XRECORD
  5
1E9
102
{ACAD_REACTORS
330
1E8
102
}
330
1E8
100
AcDbXrecord
280
     1
102
RTVSPropertyOp0
 70
     0
102
RTVSPropertyOp1
 70
     0
102
RTVSPropertyOp2
 70
     0
102
RTVSPropertyOp3
 70
     0
102
RTVSPropertyOp4
 70
     0
102
RTVSPropertyOp5
 70
     0
102
RTVSPropertyOp6
 70
     0
102
RTVSPropertyOp7
 70
     0
102
RTVSPropertyOp8
 70
     0
102
RTVSPropertyOp9
 70
     0
102
RTVSPropertyOp10
 70
     0
102
RTVSPropertyOp11
 70
     0
102
RTVSPropertyOp12
 70
     0
102
RTVSPropertyOp13
 70
     0
102
RTVSPropertyOp14
 70
     2
102
RTVSPropertyOp15
 70
     0
102
RTVSPropertyOp16
 70
     0
102
RTVSPropertyOp17
 70
     0
102
RTVSPropertyOp18
 70
     0
102
RTVSPropertyOp19
 70
     0
102
RTVSPropertyOp20
 70
     0
102
RTVSPropertyOp21
 70
     0
102
RTVSPropertyOp22
 70
     0
102
RTVSPropertyOp23
 70
     0
102
RTVSPropertyOp24
 70
     0
102
RTVSPropertyOp25
 70
     0
102
RTVSPropertyOp26
 70
     0
102
RTVSPropertyOp27
 70
     0
102
RTVSPropertyOp28
 70
     0
102
RTVSPropertyOp29
 70
     0
102
RTVSPropertyOp30
 70
     0
102
RTVSPropertyOp31
 70
     0
102
RTVSPropertyOp32
 70
     0
102
RTVSPropertyOp33
 70
     0
102
RTVSPropertyOp34
 70
     0
102
RTVSPropertyOp35
 70
     0
102
RTVSPropertyOp36
 70
     0
102
RTVSPropertyOp37
 70
     0
102
RTVSPropertyOp38
 70
     0
102
RTVSPropertyOp39
 70
     0
102
RTVSPropertyOp40
 70
     0
102
RTVSPropertyOp41
 70
     0
102
RTVSPropertyOp42
 70
     0
102
RTVSPropertyOp43
 70
     0
102
RTVSPropertyOp44
 70
     0
102
RTVSPropertyOp45
 70
     0
102
RTVSPropertyOp46
 70
     0
102
RTVSPropertyOp47
 70
     0
102
RTVSPropertyOp48
 70
     0
102
RTVSPropertyOp49
 70
     0
102
RTVSPropertyOp50
 70
     0
102
RTVSPropertyOp51
 70
     0
102
RTVSPropertyOp52
 70
     0
102
RTVSPropertyOp53
 70
     0
102
RTVSPropertyOp54
 70
     0
102
RTVSPropertyOp55
 70
     0
102
RTVSPropertyOp56
 70
     0
102
RTVSPropertyOp57
 70
     0
102
RTVSPost2010Prop28
280
     0
102
RTVSPost2010PropOp28
 70
     0
102
RTVSPost2010Prop29
280
     1
102
RTVSPost2010PropOp29
 70
     0
102
RTVSPost2010Prop30
280
     1
102
RTVSPost2010PropOp30
 70
     0
102
RTVSPost2010Prop31
280
     0
102
RTVSPost2010PropOp31
 70
     0
102
RTVSPost2010Prop32
280
     0
102
RTVSPost2010PropOp32
 70
     0
102
RTVSPost2010Prop33
280
     0
102
RTVSPost2010PropOp33
 70
     0
102
RTVSPost2010Prop34
280
     0
102
RTVSPost2010PropOp34
 70
     0
102
RTVSPost2010Prop35
280
     0
102
RTVSPost2010PropOp35
 70
     0
102
RTVSPost2010Prop36
280
     0
102
RTVSPost2010PropOp36
 70
     0
102
RTVSPost2010Prop37
 90
       50
102
RTVSPost2010PropOp37
 70
     0
102
RTVSPost2010Prop38
140
0.0
102
RTVSPost2010PropOp38
 70
     0
102
RTVSPost2010Prop39
140
1.0
102
RTVSPost2010PropOp39
 70
     0
102
RTVSPost2010Prop40
 90
        0
102
RTVSPost2010PropOp40
 70
     0
102
RTVSPost2010Prop41ColorIndex
 90
       18
102
RTVSPost2010Prop41ColorRGB
 90
        0
102
RTVSPost2010PropOp41
 70
     0
102
RTVSPost2010Prop42
 90
       50
102
RTVSPost2010PropOp42
 70
     0
102
RTVSPost2010Prop43
 90
        3
102
RTVSPost2010PropOp43
 70
     0
102
RTVSPost2010Prop44ColorIndex
 90
        5
102
RTVSPost2010Prop44ColorRGB
 90
      255
102
RTVSPost2010PropOp44
 70
     0
102
RTVSPost2010Prop45
280
     0
102
RTVSPost2010PropOp45
 70
     0
102
RTVSPost2010Prop46
 90
       50
102
RTVSPost2010PropOp46
 70
     0
102
RTVSPost2010Prop47
 90
       50
102
RTVSPost2010PropOp47
 70
     0
102
RTVSPost2010Prop48
 90
       50
102
RTVSPost2010PropOp48
 70
     0
102
RTVSPost2010Prop49
280
     0
102
RTVSPost2010PropOp49
 70
     0
102
RTVSPost2010Prop50
 90
       50
102
RTVSPost2010PropOp50
 70
     0
102
RTVSPost2010Prop51ColorIndex
 90
      256
102
RTVSPost2010Prop51ColorRGB
 90
-16777216
102
RTVSPost2010PropOp51
 70
     0
102
RTVSPost2010Prop52
140
1.0
102
RTVSPost2010PropOp52
 70
     0
102
RTVSPost2010Prop53
 90
        2
102
RTVSPost2010PropOp53
 70
     0
102
RTVSPost2010Prop54
  1
strokes_ogs.tif
102
RTVSPost2010PropOp54
 70
     0
102
RTVSPost2010Prop55
280
     0
102
RTVSPost2010PropOp55
 70
     0
102
RTVSPost2010Prop56
140
1.0
102
RTVSPost2010PropOp56
 70
     0
102
RTVSPost2010Prop57
140
1.0
102
RTVSPost2010PropOp57
 70
     0
  0
XRECORD
  5
1D7
102
{ACAD_REACTORS
330
1D6
102
}
330
1D6
100
AcDbXrecord
280
     1
102
RTVSPropertyOp0
 70
     1
102
RTVSPropertyOp1
 70
     1
102
RTVSPropertyOp2
 70
     1
102
RTVSPropertyOp3
 70
     1
102
RTVSPropertyOp4
 70
     1
102
RTVSPropertyOp5
 70
     1
102
RTVSPropertyOp6
 70
     1
102
RTVSPropertyOp7
 70
     1
102
RTVSPropertyOp8
 70
     1
102
RTVSPropertyOp9
 70
     1
102
RTVSPropertyOp10
 70
     1
102
RTVSPropertyOp11
 70
     1
102
RTVSPropertyOp12
 70
     1
102
RTVSPropertyOp13
 70
     1
102
RTVSPropertyOp14
 70
     1
102
RTVSPropertyOp15
 70
     1
102
RTVSPropertyOp16
 70
     1
102
RTVSPropertyOp17
 70
     1
102
RTVSPropertyOp18
 70
     1
102
RTVSPropertyOp19
 70
     1
102
RTVSPropertyOp20
 70
     1
102
RTVSPropertyOp21
 70
     1
102
RTVSPropertyOp22
 70
     1
102
RTVSPropertyOp23
 70
     1
102
RTVSPropertyOp24
 70
     1
102
RTVSPropertyOp25
 70
     1
102
RTVSPropertyOp26
 70
     1
102
RTVSPropertyOp27
 70
     1
102
RTVSPropertyOp28
 70
     1
102
RTVSPropertyOp29
 70
     1
102
RTVSPropertyOp30
 70
     1
102
RTVSPropertyOp31
 70
     1
102
RTVSPropertyOp32
 70
     1
102
RTVSPropertyOp33
 70
     1
102
RTVSPropertyOp34
 70
     1
102
RTVSPropertyOp35
 70
     1
102
RTVSPropertyOp36
 70
     1
102
RTVSPropertyOp37
 70
     1
102
RTVSPropertyOp38
 70
     1
102
RTVSPropertyOp39
 70
     1
102
RTVSPropertyOp40
 70
     1
102
RTVSPropertyOp41
 70
     1
102
RTVSPropertyOp42
 70
     1
102
RTVSPropertyOp43
 70
     1
102
RTVSPropertyOp44
 70
     1
102
RTVSPropertyOp45
 70
     1
102
RTVSPropertyOp46
 70
     1
102
RTVSPropertyOp47
 70
     1
102
RTVSPropertyOp48
 70
     1
102
RTVSPropertyOp49
 70
     1
102
RTVSPropertyOp50
 70
     1
102
RTVSPropertyOp51
 70
     0
102
RTVSPropertyOp52
 70
     0
102
RTVSPropertyOp53
 70
     1
102
RTVSPropertyOp54
 70
     1
102
RTVSPropertyOp55
 70
     1
102
RTVSPropertyOp56
 70
     1
102
RTVSPropertyOp57
 70
     1
102
RTVSPost2010Prop28
280
     0
102
RTVSPost2010PropOp28
 70
     1
102
RTVSPost2010Prop29
280
     1
102
RTVSPost2010PropOp29
 70
     1
102
RTVSPost2010Prop30
280
     1
102
RTVSPost2010PropOp30
 70
     1
102
RTVSPost2010Prop31
280
     0
102
RTVSPost2010PropOp31
 70
     1
102
RTVSPost2010Prop32
280
     0
102
RTVSPost2010PropOp32
 70
     1
102
RTVSPost2010Prop33
280
     0
102
RTVSPost2010PropOp33
 70
     1
102
RTVSPost2010Prop34
280
     0
102
RTVSPost2010PropOp34
 70
     1
102
RTVSPost2010Prop35
280
     0
102
RTVSPost2010PropOp35
 70
     1
102
RTVSPost2010Prop36
280
     0
102
RTVSPost2010PropOp36
 70
     1
102
RTVSPost2010Prop37
 90
       50
102
RTVSPost2010PropOp37
 70
     1
102
RTVSPost2010Prop38
140
0.0
102
RTVSPost2010PropOp38
 70
     1
102
RTVSPost2010Prop39
140
1.0
102
RTVSPost2010PropOp39
 70
     1
102
RTVSPost2010Prop40
 90
        0
102
RTVSPost2010PropOp40
 70
     1
102
RTVSPost2010Prop41ColorIndex
 90
       18
102
RTVSPost2010Prop41ColorRGB
 90
        0
102
RTVSPost2010PropOp41
 70
     1
102
RTVSPost2010Prop42
 90
       50
102
RTVSPost2010PropOp42
 70
     1
102
RTVSPost2010Prop43
 90
        3
102
RTVSPost2010PropOp43
 70
     1
102
RTVSPost2010Prop44ColorIndex
 90
        5
102
RTVSPost2010Prop44ColorRGB
 90
      255
102
RTVSPost2010PropOp44
 70
     1
102
RTVSPost2010Prop45
280
     0
102
RTVSPost2010PropOp45
 70
     1
102
RTVSPost2010Prop46
 90
       50
102
RTVSPost2010PropOp46
 70
     1
102
RTVSPost2010Prop47
 90
       50
102
RTVSPost2010PropOp47
 70
     1
102
RTVSPost2010Prop48
 90
       50
102
RTVSPost2010PropOp48
 70
     1
102
RTVSPost2010Prop49
280
     0
102
RTVSPost2010PropOp49
 70
     1
102
RTVSPost2010Prop50
 90
       50
102
RTVSPost2010PropOp50
 70
     1
102
RTVSPost2010Prop51ColorIndex
 90
      256
102
RTVSPost2010Prop51ColorRGB
 90
-16777216
102
RTVSPost2010PropOp51
 70
     0
102
RTVSPost2010Prop52
140
1.0
102
RTVSPost2010PropOp52
 70
     0
102
RTVSPost2010Prop53
 90
        2
102
RTVSPost2010PropOp53
 70
     1
102
RTVSPost2010Prop54
  1
strokes_ogs.tif
102
RTVSPost2010PropOp54
 70
     1
102
RTVSPost2010Prop55
280
     0
102
RTVSPost2010PropOp55
 70
     1
102
RTVSPost2010Prop56
140
1.0
102
RTVSPost2010PropOp56
 70
     1
102
RTVSPost2010Prop57
140
1.0
102
RTVSPost2010PropOp57
 70
     1
  0
XRECORD
  5
1F5
102
{ACAD_REACTORS
330
1F4
102
}
330
1F4
100
AcDbXrecord
280
     1
102
RTVSPropertyOp0
 70
     1
102
RTVSPropertyOp1
 70
     1
102
RTVSPropertyOp2
 70
     1
102
RTVSPropertyOp3
 70
     1
102
RTVSPropertyOp4
 70
     1
102
RTVSPropertyOp5
 70
     1
102
RTVSPropertyOp6
 70
     1
102
RTVSPropertyOp7
 70
     1
102
RTVSPropertyOp8
 70
     1
102
RTVSPropertyOp9
 70
     1
102
RTVSPropertyOp10
 70
     1
102
RTVSPropertyOp11
 70
     1
102
RTVSPropertyOp12
 70
     1
102
RTVSPropertyOp13
 70
     1
102
RTVSPropertyOp14
 70
     1
102
RTVSPropertyOp15
 70
     1
102
RTVSPropertyOp16
 70
     1
102
RTVSPropertyOp17
 70
     1
102
RTVSPropertyOp18
 70
     1
102
RTVSPropertyOp19
 70
     1
102
RTVSPropertyOp20
 70
     1
102
RTVSPropertyOp21
 70
     1
102
RTVSPropertyOp22
 70
     1
102
RTVSPropertyOp23
 70
     1
102
RTVSPropertyOp24
 70
     1
102
RTVSPropertyOp25
 70
     1
102
RTVSPropertyOp26
 70
     1
102
RTVSPropertyOp27
 70
     1
102
RTVSPropertyOp28
 70
     1
102
RTVSPropertyOp29
 70
     1
102
RTVSPropertyOp30
 70
     1
102
RTVSPropertyOp31
 70
     1
102
RTVSPropertyOp32
 70
     1
102
RTVSPropertyOp33
 70
     1
102
RTVSPropertyOp34
 70
     1
102
RTVSPropertyOp35
 70
     1
102
RTVSPropertyOp36
 70
     1
102
RTVSPropertyOp37
 70
     1
102
RTVSPropertyOp38
 70
     1
102
RTVSPropertyOp39
 70
     1
102
RTVSPropertyOp40
 70
     1
102
RTVSPropertyOp41
 70
     1
102
RTVSPropertyOp42
 70
     1
102
RTVSPropertyOp43
 70
     1
102
RTVSPropertyOp44
 70
     1
102
RTVSPropertyOp45
 70
     1
102
RTVSPropertyOp46
 70
     1
102
RTVSPropertyOp47
 70
     1
102
RTVSPropertyOp48
 70
     1
102
RTVSPropertyOp49
 70
     1
102
RTVSPropertyOp50
 70
     1
102
RTVSPropertyOp51
 70
     0
102
RTVSPropertyOp52
 70
     0
102
RTVSPropertyOp53
 70
     1
102
RTVSPropertyOp54
 70
     1
102
RTVSPropertyOp55
 70
     1
102
RTVSPropertyOp56
 70
     1
102
RTVSPropertyOp57
 70
     1
102
RTVSPost2010Prop28
280
     0
102
RTVSPost2010PropOp28
 70
     1
102
RTVSPost2010Prop29
280
     1
102
RTVSPost2010PropOp29
 70
     1
102
RTVSPost2010Prop30
280
     1
102
RTVSPost2010PropOp30
 70
     1
102
RTVSPost2010Prop31
280
     0
102
RTVSPost2010PropOp31
 70
     1
102
RTVSPost2010Prop32
280
     0
102
RTVSPost2010PropOp32
 70
     1
102
RTVSPost2010Prop33
280
     0
102
RTVSPost2010PropOp33
 70
     1
102
RTVSPost2010Prop34
280
     0
102
RTVSPost2010PropOp34
 70
     1
102
RTVSPost2010Prop35
280
     0
102
RTVSPost2010PropOp35
 70
     1
102
RTVSPost2010Prop36
280
     0
102
RTVSPost2010PropOp36
 70
     1
102
RTVSPost2010Prop37
 90
       50
102
RTVSPost2010PropOp37
 70
     1
102
RTVSPost2010Prop38
140
0.0
102
RTVSPost2010PropOp38
 70
     1
102
RTVSPost2010Prop39
140
1.0
102
RTVSPost2010PropOp39
 70
     1
102
RTVSPost2010Prop40
 90
        0
102
RTVSPost2010PropOp40
 70
     1
102
RTVSPost2010Prop41ColorIndex
 90
       18
102
RTVSPost2010Prop41ColorRGB
 90
        0
102
RTVSPost2010PropOp41
 70
     1
102
RTVSPost2010Prop42
 90
       50
102
RTVSPost2010PropOp42
 70
     1
102
RTVSPost2010Prop43
 90
        3
102
RTVSPost2010PropOp43
 70
     1
102
RTVSPost2010Prop44ColorIndex
 90
        5
102
RTVSPost2010Prop44ColorRGB
 90
      255
102
RTVSPost2010PropOp44
 70
     1
102
RTVSPost2010Prop45
280
     0
102
RTVSPost2010PropOp45
 70
     1
102
RTVSPost2010Prop46
 90
       50
102
RTVSPost2010PropOp46
 70
     1
102
RTVSPost2010Prop47
 90
       50
102
RTVSPost2010PropOp47
 70
     1
102
RTVSPost2010Prop48
 90
       50
102
RTVSPost2010PropOp48
 70
     1
102
RTVSPost2010Prop49
280
     0
102
RTVSPost2010PropOp49
 70
     1
102
RTVSPost2010Prop50
 90
       50
102
RTVSPost2010PropOp50
 70
     1
102
RTVSPost2010Prop51ColorIndex
 90
      256
102
RTVSPost2010Prop51ColorRGB
 90
-16777216
102
RTVSPost2010PropOp51
 70
     0
102
RTVSPost2010Prop52
140
1.0
102
RTVSPost2010PropOp52
 70
     0
102
RTVSPost2010Prop53
 90
        2
102
RTVSPost2010PropOp53
 70
     1
102
RTVSPost2010Prop54
  1
strokes_ogs.tif
102
RTVSPost2010PropOp54
 70
     1
102
RTVSPost2010Prop55
280
     0
102
RTVSPost2010PropOp55
 70
     1
102
RTVSPost2010Prop56
140
1.0
102
RTVSPost2010PropOp56
 70
     1
102
RTVSPost2010Prop57
140
1.0
102
RTVSPost2010PropOp57
 70
     1
  0
XRECORD
  5
1F3
102
{ACAD_REACTORS
330
1F2
102
}
330
1F2
100
AcDbXrecord
280
     1
102
RTVSPropertyOp0
 70
     1
102
RTVSPropertyOp1
 70
     1
102
RTVSPropertyOp2
 70
     1
102
RTVSPropertyOp3
 70
     1
102
RTVSPropertyOp4
 70
     1
102
RTVSPropertyOp5
 70
     1
102
RTVSPropertyOp6
 70
     1
102
RTVSPropertyOp7
 70
     1
102
RTVSPropertyOp8
 70
     1
102
RTVSPropertyOp9
 70
     1
102
RTVSPropertyOp10
 70
     1
102
RTVSPropertyOp11
 70
     1
102
RTVSPropertyOp12
 70
     1
102
RTVSPropertyOp13
 70
     1
102
RTVSPropertyOp14
 70
     1
102
RTVSPropertyOp15
 70
     1
102
RTVSPropertyOp16
 70
     1
102
RTVSPropertyOp17
 70
     1
102
RTVSPropertyOp18
 70
     1
102
RTVSPropertyOp19
 70
     1
102
RTVSPropertyOp20
 70
     1
102
RTVSPropertyOp21
 70
     1
102
RTVSPropertyOp22
 70
     1
102
RTVSPropertyOp23
 70
     1
102
RTVSPropertyOp24
 70
     1
102
RTVSPropertyOp25
 70
     1
102
RTVSPropertyOp26
 70
     1
102
RTVSPropertyOp27
 70
     1
102
RTVSPropertyOp28
 70
     1
102
RTVSPropertyOp29
 70
     1
102
RTVSPropertyOp30
 70
     1
102
RTVSPropertyOp31
 70
     1
102
RTVSPropertyOp32
 70
     1
102
RTVSPropertyOp33
 70
     1
102
RTVSPropertyOp34
 70
     1
102
RTVSPropertyOp35
 70
     1
102
RTVSPropertyOp36
 70
     1
102
RTVSPropertyOp37
 70
     1
102
RTVSPropertyOp38
 70
     1
102
RTVSPropertyOp39
 70
     1
102
RTVSPropertyOp40
 70
     1
102
RTVSPropertyOp41
 70
     1
102
RTVSPropertyOp42
 70
     1
102
RTVSPropertyOp43
 70
     1
102
RTVSPropertyOp44
 70
     1
102
RTVSPropertyOp45
 70
     1
102
RTVSPropertyOp46
 70
     1
102
RTVSPropertyOp47
 70
     1
102
RTVSPropertyOp48
 70
     1
102
RTVSPropertyOp49
 70
     1
102
RTVSPropertyOp50
 70
     1
102
RTVSPropertyOp51
 70
     0
102
RTVSPropertyOp52
 70
     0
102
RTVSPropertyOp53
 70
     1
102
RTVSPropertyOp54
 70
     1
102
RTVSPropertyOp55
 70
     1
102
RTVSPropertyOp56
 70
     1
102
RTVSPropertyOp57
 70
     1
102
RTVSPost2010Prop28
280
     0
102
RTVSPost2010PropOp28
 70
     1
102
RTVSPost2010Prop29
280
     1
102
RTVSPost2010PropOp29
 70
     1
102
RTVSPost2010Prop30
280
     1
102
RTVSPost2010PropOp30
 70
     1
102
RTVSPost2010Prop31
280
     0
102
RTVSPost2010PropOp31
 70
     1
102
RTVSPost2010Prop32
280
     0
102
RTVSPost2010PropOp32
 70
     1
102
RTVSPost2010Prop33
280
     0
102
RTVSPost2010PropOp33
 70
     1
102
RTVSPost2010Prop34
280
     0
102
RTVSPost2010PropOp34
 70
     1
102
RTVSPost2010Prop35
280
     0
102
RTVSPost2010PropOp35
 70
     1
102
RTVSPost2010Prop36
280
     0
102
RTVSPost2010PropOp36
 70
     1
102
RTVSPost2010Prop37
 90
       50
102
RTVSPost2010PropOp37
 70
     1
102
RTVSPost2010Prop38
140
0.0
102
RTVSPost2010PropOp38
 70
     1
102
RTVSPost2010Prop39
140
1.0
102
RTVSPost2010PropOp39
 70
     1
102
RTVSPost2010Prop40
 90
        0
102
RTVSPost2010PropOp40
 70
     1
102
RTVSPost2010Prop41ColorIndex
 90
       18
102
RTVSPost2010Prop41ColorRGB
 90
        0
102
RTVSPost2010PropOp41
 70
     1
102
RTVSPost2010Prop42
 90
       50
102
RTVSPost2010PropOp42
 70
     1
102
RTVSPost2010Prop43
 90
        3
102
RTVSPost2010PropOp43
 70
     1
102
RTVSPost2010Prop44ColorIndex
 90
        5
102
RTVSPost2010Prop44ColorRGB
 90
      255
102
RTVSPost2010PropOp44
 70
     1
102
RTVSPost2010Prop45
280
     0
102
RTVSPost2010PropOp45
 70
     1
102
RTVSPost2010Prop46
 90
       50
102
RTVSPost2010PropOp46
 70
     1
102
RTVSPost2010Prop47
 90
       50
102
RTVSPost2010PropOp47
 70
     1
102
RTVSPost2010Prop48
 90
       50
102
RTVSPost2010PropOp48
 70
     1
102
RTVSPost2010Prop49
280
     0
102
RTVSPost2010PropOp49
 70
     1
102
RTVSPost2010Prop50
 90
       50
102
RTVSPost2010PropOp50
 70
     1
102
RTVSPost2010Prop51ColorIndex
 90
      256
102
RTVSPost2010Prop51ColorRGB
 90
-16777216
102
RTVSPost2010PropOp51
 70
     0
102
RTVSPost2010Prop52
140
1.0
102
RTVSPost2010PropOp52
 70
     0
102
RTVSPost2010Prop53
 90
        2
102
RTVSPost2010PropOp53
 70
     1
102
RTVSPost2010Prop54
  1
strokes_ogs.tif
102
RTVSPost2010PropOp54
 70
     1
102
RTVSPost2010Prop55
280
     0
102
RTVSPost2010PropOp55
 70
     1
102
RTVSPost2010Prop56
140
1.0
102
RTVSPost2010PropOp56
 70
     1
102
RTVSPost2010Prop57
140
1.0
102
RTVSPost2010PropOp57
 70
     1
  0
XRECORD
  5
1ED
102
{ACAD_REACTORS
330
1EC
102
}
330
1EC
100
AcDbXrecord
280
     1
102
RTVSPropertyOp0
 70
     1
102
RTVSPropertyOp1
 70
     1
102
RTVSPropertyOp2
 70
     1
102
RTVSPropertyOp3
 70
     1
102
RTVSPropertyOp4
 70
     1
102
RTVSPropertyOp5
 70
     1
102
RTVSPropertyOp6
 70
     1
102
RTVSPropertyOp7
 70
     1
102
RTVSPropertyOp8
 70
     1
102
RTVSPropertyOp9
 70
     1
102
RTVSPropertyOp10
 70
     1
102
RTVSPropertyOp11
 70
     1
102
RTVSPropertyOp12
 70
     1
102
RTVSPropertyOp13
 70
     1
102
RTVSPropertyOp14
 70
     1
102
RTVSPropertyOp15
 70
     1
102
RTVSPropertyOp16
 70
     1
102
RTVSPropertyOp17
 70
     1
102
RTVSPropertyOp18
 70
     1
102
RTVSPropertyOp19
 70
     1
102
RTVSPropertyOp20
 70
     1
102
RTVSPropertyOp21
 70
     1
102
RTVSPropertyOp22
 70
     1
102
RTVSPropertyOp23
 70
     1
102
RTVSPropertyOp24
 70
     1
102
RTVSPropertyOp25
 70
     1
102
RTVSPropertyOp26
 70
     1
102
RTVSPropertyOp27
 70
     1
102
RTVSPropertyOp28
 70
     1
102
RTVSPropertyOp29
 70
     1
102
RTVSPropertyOp30
 70
     1
102
RTVSPropertyOp31
 70
     1
102
RTVSPropertyOp32
 70
     1
102
RTVSPropertyOp33
 70
     1
102
RTVSPropertyOp34
 70
     1
102
RTVSPropertyOp35
 70
     1
102
RTVSPropertyOp36
 70
     1
102
RTVSPropertyOp37
 70
     1
102
RTVSPropertyOp38
 70
     1
102
RTVSPropertyOp39
 70
     1
102
RTVSPropertyOp40
 70
     1
102
RTVSPropertyOp41
 70
     1
102
RTVSPropertyOp42
 70
     1
102
RTVSPropertyOp43
 70
     1
102
RTVSPropertyOp44
 70
     1
102
RTVSPropertyOp45
 70
     1
102
RTVSPropertyOp46
 70
     1
102
RTVSPropertyOp47
 70
     1
102
RTVSPropertyOp48
 70
     1
102
RTVSPropertyOp49
 70
     1
102
RTVSPropertyOp50
 70
     1
102
RTVSPropertyOp51
 70
     0
102
RTVSPropertyOp52
 70
     0
102
RTVSPropertyOp53
 70
     1
102
RTVSPropertyOp54
 70
     1
102
RTVSPropertyOp55
 70
     1
102
RTVSPropertyOp56
 70
     1
102
RTVSPropertyOp57
 70
     1
102
RTVSPost2010Prop28
280
     0
102
RTVSPost2010PropOp28
 70
     1
102
RTVSPost2010Prop29
280
     1
102
RTVSPost2010PropOp29
 70
     1
102
RTVSPost2010Prop30
280
     1
102
RTVSPost2010PropOp30
 70
     1
102
RTVSPost2010Prop31
280
     0
102
RTVSPost2010PropOp31
 70
     1
102
RTVSPost2010Prop32
280
     0
102
RTVSPost2010PropOp32
 70
     1
102
RTVSPost2010Prop33
280
     0
102
RTVSPost2010PropOp33
 70
     1
102
RTVSPost2010Prop34
280
     0
102
RTVSPost2010PropOp34
 70
     1
102
RTVSPost2010Prop35
280
     0
102
RTVSPost2010PropOp35
 70
     1
102
RTVSPost2010Prop36
280
     0
102
RTVSPost2010PropOp36
 70
     1
102
RTVSPost2010Prop37
 90
       50
102
RTVSPost2010PropOp37
 70
     1
102
RTVSPost2010Prop38
140
0.0
102
RTVSPost2010PropOp38
 70
     1
102
RTVSPost2010Prop39
140
1.0
102
RTVSPost2010PropOp39
 70
     1
102
RTVSPost2010Prop40
 90
        0
102
RTVSPost2010PropOp40
 70
     1
102
RTVSPost2010Prop41ColorIndex
 90
       18
102
RTVSPost2010Prop41ColorRGB
 90
        0
102
RTVSPost2010PropOp41
 70
     1
102
RTVSPost2010Prop42
 90
       50
102
RTVSPost2010PropOp42
 70
     1
102
RTVSPost2010Prop43
 90
        3
102
RTVSPost2010PropOp43
 70
     1
102
RTVSPost2010Prop44ColorIndex
 90
        5
102
RTVSPost2010Prop44ColorRGB
 90
      255
102
RTVSPost2010PropOp44
 70
     1
102
RTVSPost2010Prop45
280
     0
102
RTVSPost2010PropOp45
 70
     1
102
RTVSPost2010Prop46
 90
       50
102
RTVSPost2010PropOp46
 70
     1
102
RTVSPost2010Prop47
 90
       50
102
RTVSPost2010PropOp47
 70
     1
102
RTVSPost2010Prop48
 90
       50
102
RTVSPost2010PropOp48
 70
     1
102
RTVSPost2010Prop49
280
     0
102
RTVSPost2010PropOp49
 70
     1
102
RTVSPost2010Prop50
 90
       50
102
RTVSPost2010PropOp50
 70
     1
102
RTVSPost2010Prop51ColorIndex
 90
      256
102
RTVSPost2010Prop51ColorRGB
 90
-16777216
102
RTVSPost2010PropOp51
 70
     0
102
RTVSPost2010Prop52
140
1.0
102
RTVSPost2010PropOp52
 70
     0
102
RTVSPost2010Prop53
 90
        2
102
RTVSPost2010PropOp53
 70
     1
102
RTVSPost2010Prop54
  1
strokes_ogs.tif
102
RTVSPost2010PropOp54
 70
     1
102
RTVSPost2010Prop55
280
     0
102
RTVSPost2010PropOp55
 70
     1
102
RTVSPost2010Prop56
140
1.0
102
RTVSPost2010PropOp56
 70
     1
102
RTVSPost2010Prop57
140
1.0
102
RTVSPost2010PropOp57
 70
     1
  0
XRECORD
  5
1EF
102
{ACAD_REACTORS
330
1EE
102
}
330
1EE
100
AcDbXrecord
280
     1
102
RTVSPropertyOp0
 70
     1
102
RTVSPropertyOp1
 70
     1
102
RTVSPropertyOp2
 70
     1
102
RTVSPropertyOp3
 70
     1
102
RTVSPropertyOp4
 70
     1
102
RTVSPropertyOp5
 70
     1
102
RTVSPropertyOp6
 70
     1
102
RTVSPropertyOp7
 70
     1
102
RTVSPropertyOp8
 70
     1
102
RTVSPropertyOp9
 70
     1
102
RTVSPropertyOp10
 70
     1
102
RTVSPropertyOp11
 70
     1
102
RTVSPropertyOp12
 70
     1
102
RTVSPropertyOp13
 70
     1
102
RTVSPropertyOp14
 70
     1
102
RTVSPropertyOp15
 70
     1
102
RTVSPropertyOp16
 70
     1
102
RTVSPropertyOp17
 70
     1
102
RTVSPropertyOp18
 70
     1
102
RTVSPropertyOp19
 70
     1
102
RTVSPropertyOp20
 70
     1
102
RTVSPropertyOp21
 70
     1
102
RTVSPropertyOp22
 70
     1
102
RTVSPropertyOp23
 70
     1
102
RTVSPropertyOp24
 70
     1
102
RTVSPropertyOp25
 70
     1
102
RTVSPropertyOp26
 70
     1
102
RTVSPropertyOp27
 70
     1
102
RTVSPropertyOp28
 70
     1
102
RTVSPropertyOp29
 70
     1
102
RTVSPropertyOp30
 70
     1
102
RTVSPropertyOp31
 70
     1
102
RTVSPropertyOp32
 70
     1
102
RTVSPropertyOp33
 70
     1
102
RTVSPropertyOp34
 70
     1
102
RTVSPropertyOp35
 70
     1
102
RTVSPropertyOp36
 70
     1
102
RTVSPropertyOp37
 70
     1
102
RTVSPropertyOp38
 70
     1
102
RTVSPropertyOp39
 70
     1
102
RTVSPropertyOp40
 70
     1
102
RTVSPropertyOp41
 70
     1
102
RTVSPropertyOp42
 70
     1
102
RTVSPropertyOp43
 70
     1
102
RTVSPropertyOp44
 70
     1
102
RTVSPropertyOp45
 70
     1
102
RTVSPropertyOp46
 70
     1
102
RTVSPropertyOp47
 70
     1
102
RTVSPropertyOp48
 70
     1
102
RTVSPropertyOp49
 70
     1
102
RTVSPropertyOp50
 70
     1
102
RTVSPropertyOp51
 70
     0
102
RTVSPropertyOp52
 70
     0
102
RTVSPropertyOp53
 70
     1
102
RTVSPropertyOp54
 70
     1
102
RTVSPropertyOp55
 70
     1
102
RTVSPropertyOp56
 70
     1
102
RTVSPropertyOp57
 70
     1
102
RTVSPost2010Prop28
280
     0
102
RTVSPost2010PropOp28
 70
     1
102
RTVSPost2010Prop29
280
     1
102
RTVSPost2010PropOp29
 70
     1
102
RTVSPost2010Prop30
280
     1
102
RTVSPost2010PropOp30
 70
     1
102
RTVSPost2010Prop31
280
     0
102
RTVSPost2010PropOp31
 70
     1
102
RTVSPost2010Prop32
280
     0
102
RTVSPost2010PropOp32
 70
     1
102
RTVSPost2010Prop33
280
     0
102
RTVSPost2010PropOp33
 70
     1
102
RTVSPost2010Prop34
280
     0
102
RTVSPost2010PropOp34
 70
     1
102
RTVSPost2010Prop35
280
     0
102
RTVSPost2010PropOp35
 70
     1
102
RTVSPost2010Prop36
280
     0
102
RTVSPost2010PropOp36
 70
     1
102
RTVSPost2010Prop37
 90
       50
102
RTVSPost2010PropOp37
 70
     1
102
RTVSPost2010Prop38
140
0.0
102
RTVSPost2010PropOp38
 70
     1
102
RTVSPost2010Prop39
140
1.0
102
RTVSPost2010PropOp39
 70
     1
102
RTVSPost2010Prop40
 90
        0
102
RTVSPost2010PropOp40
 70
     1
102
RTVSPost2010Prop41ColorIndex
 90
       18
102
RTVSPost2010Prop41ColorRGB
 90
        0
102
RTVSPost2010PropOp41
 70
     1
102
RTVSPost2010Prop42
 90
       50
102
RTVSPost2010PropOp42
 70
     1
102
RTVSPost2010Prop43
 90
        3
102
RTVSPost2010PropOp43
 70
     1
102
RTVSPost2010Prop44ColorIndex
 90
        5
102
RTVSPost2010Prop44ColorRGB
 90
      255
102
RTVSPost2010PropOp44
 70
     1
102
RTVSPost2010Prop45
280
     0
102
RTVSPost2010PropOp45
 70
     1
102
RTVSPost2010Prop46
 90
       50
102
RTVSPost2010PropOp46
 70
     1
102
RTVSPost2010Prop47
 90
       50
102
RTVSPost2010PropOp47
 70
     1
102
RTVSPost2010Prop48
 90
       50
102
RTVSPost2010PropOp48
 70
     1
102
RTVSPost2010Prop49
280
     0
102
RTVSPost2010PropOp49
 70
     1
102
RTVSPost2010Prop50
 90
       50
102
RTVSPost2010PropOp50
 70
     1
102
RTVSPost2010Prop51ColorIndex
 90
      256
102
RTVSPost2010Prop51ColorRGB
 90
-16777216
102
RTVSPost2010PropOp51
 70
     0
102
RTVSPost2010Prop52
140
1.0
102
RTVSPost2010PropOp52
 70
     0
102
RTVSPost2010Prop53
 90
        2
102
RTVSPost2010PropOp53
 70
     1
102
RTVSPost2010Prop54
  1
strokes_ogs.tif
102
RTVSPost2010PropOp54
 70
     1
102
RTVSPost2010Prop55
280
     0
102
RTVSPost2010PropOp55
 70
     1
102
RTVSPost2010Prop56
140
1.0
102
RTVSPost2010PropOp56
 70
     1
102
RTVSPost2010Prop57
140
1.0
102
RTVSPost2010PropOp57
 70
     1
  0
XRECORD
  5
1DF
102
{ACAD_REACTORS
330
1DE
102
}
330
1DE
100
AcDbXrecord
280
     1
102
RTVSPropertyOp0
 70
     1
102
RTVSPropertyOp1
 70
     1
102
RTVSPropertyOp2
 70
     1
102
RTVSPropertyOp3
 70
     1
102
RTVSPropertyOp4
 70
     1
102
RTVSPropertyOp5
 70
     1
102
RTVSPropertyOp6
 70
     1
102
RTVSPropertyOp7
 70
     1
102
RTVSPropertyOp8
 70
     1
102
RTVSPropertyOp9
 70
     1
102
RTVSPropertyOp10
 70
     1
102
RTVSPropertyOp11
 70
     1
102
RTVSPropertyOp12
 70
     1
102
RTVSPropertyOp13
 70
     1
102
RTVSPropertyOp14
 70
     1
102
RTVSPropertyOp15
 70
     1
102
RTVSPropertyOp16
 70
     1
102
RTVSPropertyOp17
 70
     1
102
RTVSPropertyOp18
 70
     1
102
RTVSPropertyOp19
 70
     1
102
RTVSPropertyOp20
 70
     1
102
RTVSPropertyOp21
 70
     1
102
RTVSPropertyOp22
 70
     1
102
RTVSPropertyOp23
 70
     1
102
RTVSPropertyOp24
 70
     1
102
RTVSPropertyOp25
 70
     1
102
RTVSPropertyOp26
 70
     1
102
RTVSPropertyOp27
 70
     1
102
RTVSPropertyOp28
 70
     1
102
RTVSPropertyOp29
 70
     1
102
RTVSPropertyOp30
 70
     1
102
RTVSPropertyOp31
 70
     1
102
RTVSPropertyOp32
 70
     1
102
RTVSPropertyOp33
 70
     1
102
RTVSPropertyOp34
 70
     1
102
RTVSPropertyOp35
 70
     1
102
RTVSPropertyOp36
 70
     1
102
RTVSPropertyOp37
 70
     1
102
RTVSPropertyOp38
 70
     1
102
RTVSPropertyOp39
 70
     1
102
RTVSPropertyOp40
 70
     1
102
RTVSPropertyOp41
 70
     1
102
RTVSPropertyOp42
 70
     1
102
RTVSPropertyOp43
 70
     1
102
RTVSPropertyOp44
 70
     1
102
RTVSPropertyOp45
 70
     1
102
RTVSPropertyOp46
 70
     1
102
RTVSPropertyOp47
 70
     1
102
RTVSPropertyOp48
 70
     1
102
RTVSPropertyOp49
 70
     1
102
RTVSPropertyOp50
 70
     1
102
RTVSPropertyOp51
 70
     0
102
RTVSPropertyOp52
 70
     0
102
RTVSPropertyOp53
 70
     1
102
RTVSPropertyOp54
 70
     1
102
RTVSPropertyOp55
 70
     1
102
RTVSPropertyOp56
 70
     1
102
RTVSPropertyOp57
 70
     1
102
RTVSPost2010Prop28
280
     0
102
RTVSPost2010PropOp28
 70
     1
102
RTVSPost2010Prop29
280
     1
102
RTVSPost2010PropOp29
 70
     1
102
RTVSPost2010Prop30
280
     1
102
RTVSPost2010PropOp30
 70
     1
102
RTVSPost2010Prop31
280
     0
102
RTVSPost2010PropOp31
 70
     1
102
RTVSPost2010Prop32
280
     0
102
RTVSPost2010PropOp32
 70
     1
102
RTVSPost2010Prop33
280
     0
102
RTVSPost2010PropOp33
 70
     1
102
RTVSPost2010Prop34
280
     0
102
RTVSPost2010PropOp34
 70
     1
102
RTVSPost2010Prop35
280
     0
102
RTVSPost2010PropOp35
 70
     1
102
RTVSPost2010Prop36
280
     0
102
RTVSPost2010PropOp36
 70
     1
102
RTVSPost2010Prop37
 90
       50
102
RTVSPost2010PropOp37
 70
     1
102
RTVSPost2010Prop38
140
0.0
102
RTVSPost2010PropOp38
 70
     1
102
RTVSPost2010Prop39
140
1.0
102
RTVSPost2010PropOp39
 70
     1
102
RTVSPost2010Prop40
 90
        0
102
RTVSPost2010PropOp40
 70
     1
102
RTVSPost2010Prop41ColorIndex
 90
       18
102
RTVSPost2010Prop41ColorRGB
 90
        0
102
RTVSPost2010PropOp41
 70
     1
102
RTVSPost2010Prop42
 90
       50
102
RTVSPost2010PropOp42
 70
     1
102
RTVSPost2010Prop43
 90
        3
102
RTVSPost2010PropOp43
 70
     1
102
RTVSPost2010Prop44ColorIndex
 90
        5
102
RTVSPost2010Prop44ColorRGB
 90
      255
102
RTVSPost2010PropOp44
 70
     1
102
RTVSPost2010Prop45
280
     0
102
RTVSPost2010PropOp45
 70
     1
102
RTVSPost2010Prop46
 90
       50
102
RTVSPost2010PropOp46
 70
     1
102
RTVSPost2010Prop47
 90
       50
102
RTVSPost2010PropOp47
 70
     1
102
RTVSPost2010Prop48
 90
       50
102
RTVSPost2010PropOp48
 70
     1
102
RTVSPost2010Prop49
280
     0
102
RTVSPost2010PropOp49
 70
     1
102
RTVSPost2010Prop50
 90
       50
102
RTVSPost2010PropOp50
 70
     1
102
RTVSPost2010Prop51ColorIndex
 90
      256
102
RTVSPost2010Prop51ColorRGB
 90
-16777216
102
RTVSPost2010PropOp51
 70
     0
102
RTVSPost2010Prop52
140
1.0
102
RTVSPost2010PropOp52
 70
     0
102
RTVSPost2010Prop53
 90
        2
102
RTVSPost2010PropOp53
 70
     1
102
RTVSPost2010Prop54
  1
strokes_ogs.tif
102
RTVSPost2010PropOp54
 70
     1
102
RTVSPost2010Prop55
280
     0
102
RTVSPost2010PropOp55
 70
     1
102
RTVSPost2010Prop56
140
1.0
102
RTVSPost2010PropOp56
 70
     1
102
RTVSPost2010Prop57
140
1.0
102
RTVSPost2010PropOp57
 70
     1
  0
XRECORD
  5
1D1
102
{ACAD_REACTORS
330
1D0
102
}
330
1D0
100
AcDbXrecord
280
     1
102
RTVSPropertyOp0
 70
     1
102
RTVSPropertyOp1
 70
     1
102
RTVSPropertyOp2
 70
     1
102
RTVSPropertyOp3
 70
     1
102
RTVSPropertyOp4
 70
     1
102
RTVSPropertyOp5
 70
     1
102
RTVSPropertyOp6
 70
     1
102
RTVSPropertyOp7
 70
     1
102
RTVSPropertyOp8
 70
     1
102
RTVSPropertyOp9
 70
     1
102
RTVSPropertyOp10
 70
     1
102
RTVSPropertyOp11
 70
     1
102
RTVSPropertyOp12
 70
     1
102
RTVSPropertyOp13
 70
     1
102
RTVSPropertyOp14
 70
     1
102
RTVSPropertyOp15
 70
     1
102
RTVSPropertyOp16
 70
     1
102
RTVSPropertyOp17
 70
     1
102
RTVSPropertyOp18
 70
     1
102
RTVSPropertyOp19
 70
     1
102
RTVSPropertyOp20
 70
     1
102
RTVSPropertyOp21
 70
     1
102
RTVSPropertyOp22
 70
     1
102
RTVSPropertyOp23
 70
     1
102
RTVSPropertyOp24
 70
     1
102
RTVSPropertyOp25
 70
     1
102
RTVSPropertyOp26
 70
     1
102
RTVSPropertyOp27
 70
     1
102
RTVSPropertyOp28
 70
     1
102
RTVSPropertyOp29
 70
     1
102
RTVSPropertyOp30
 70
     1
102
RTVSPropertyOp31
 70
     1
102
RTVSPropertyOp32
 70
     1
102
RTVSPropertyOp33
 70
     1
102
RTVSPropertyOp34
 70
     1
102
RTVSPropertyOp35
 70
     1
102
RTVSPropertyOp36
 70
     1
102
RTVSPropertyOp37
 70
     1
102
RTVSPropertyOp38
 70
     1
102
RTVSPropertyOp39
 70
     1
102
RTVSPropertyOp40
 70
     1
102
RTVSPropertyOp41
 70
     1
102
RTVSPropertyOp42
 70
     1
102
RTVSPropertyOp43
 70
     1
102
RTVSPropertyOp44
 70
     1
102
RTVSPropertyOp45
 70
     1
102
RTVSPropertyOp46
 70
     1
102
RTVSPropertyOp47
 70
     1
102
RTVSPropertyOp48
 70
     1
102
RTVSPropertyOp49
 70
     1
102
RTVSPropertyOp50
 70
     1
102
RTVSPropertyOp51
 70
     0
102
RTVSPropertyOp52
 70
     0
102
RTVSPropertyOp53
 70
     1
102
RTVSPropertyOp54
 70
     1
102
RTVSPropertyOp55
 70
     1
102
RTVSPropertyOp56
 70
     1
102
RTVSPropertyOp57
 70
     1
102
RTVSPost2010Prop28
280
     0
102
RTVSPost2010PropOp28
 70
     1
102
RTVSPost2010Prop29
280
     1
102
RTVSPost2010PropOp29
 70
     1
102
RTVSPost2010Prop30
280
     1
102
RTVSPost2010PropOp30
 70
     1
102
RTVSPost2010Prop31
280
     0
102
RTVSPost2010PropOp31
 70
     1
102
RTVSPost2010Prop32
280
     0
102
RTVSPost2010PropOp32
 70
     1
102
RTVSPost2010Prop33
280
     0
102
RTVSPost2010PropOp33
 70
     1
102
RTVSPost2010Prop34
280
     0
102
RTVSPost2010PropOp34
 70
     1
102
RTVSPost2010Prop35
280
     0
102
RTVSPost2010PropOp35
 70
     1
102
RTVSPost2010Prop36
280
     0
102
RTVSPost2010PropOp36
 70
     1
102
RTVSPost2010Prop37
 90
       50
102
RTVSPost2010PropOp37
 70
     1
102
RTVSPost2010Prop38
140
0.0
102
RTVSPost2010PropOp38
 70
     1
102
RTVSPost2010Prop39
140
1.0
102
RTVSPost2010PropOp39
 70
     1
102
RTVSPost2010Prop40
 90
        0
102
RTVSPost2010PropOp40
 70
     1
102
RTVSPost2010Prop41ColorIndex
 90
       18
102
RTVSPost2010Prop41ColorRGB
 90
        0
102
RTVSPost2010PropOp41
 70
     1
102
RTVSPost2010Prop42
 90
       50
102
RTVSPost2010PropOp42
 70
     1
102
RTVSPost2010Prop43
 90
        3
102
RTVSPost2010PropOp43
 70
     1
102
RTVSPost2010Prop44ColorIndex
 90
        5
102
RTVSPost2010Prop44ColorRGB
 90
      255
102
RTVSPost2010PropOp44
 70
     1
102
RTVSPost2010Prop45
280
     0
102
RTVSPost2010PropOp45
 70
     1
102
RTVSPost2010Prop46
 90
       50
102
RTVSPost2010PropOp46
 70
     1
102
RTVSPost2010Prop47
 90
       50
102
RTVSPost2010PropOp47
 70
     1
102
RTVSPost2010Prop48
 90
       50
102
RTVSPost2010PropOp48
 70
     1
102
RTVSPost2010Prop49
280
     0
102
RTVSPost2010PropOp49
 70
     1
102
RTVSPost2010Prop50
 90
       50
102
RTVSPost2010PropOp50
 70
     1
102
RTVSPost2010Prop51ColorIndex
 90
      256
102
RTVSPost2010Prop51ColorRGB
 90
-16777216
102
RTVSPost2010PropOp51
 70
     0
102
RTVSPost2010Prop52
140
1.0
102
RTVSPost2010PropOp52
 70
     0
102
RTVSPost2010Prop53
 90
        2
102
RTVSPost2010PropOp53
 70
     1
102
RTVSPost2010Prop54
  1
strokes_ogs.tif
102
RTVSPost2010PropOp54
 70
     1
102
RTVSPost2010Prop55
280
     0
102
RTVSPost2010PropOp55
 70
     1
102
RTVSPost2010Prop56
140
1.0
102
RTVSPost2010PropOp56
 70
     1
102
RTVSPost2010Prop57
140
1.0
102
RTVSPost2010PropOp57
 70
     1
  0
XRECORD
  5
1F1
102
{ACAD_REACTORS
330
1F0
102
}
330
1F0
100
AcDbXrecord
280
     1
102
RTVSPropertyOp0
 70
     1
102
RTVSPropertyOp1
 70
     1
102
RTVSPropertyOp2
 70
     1
102
RTVSPropertyOp3
 70
     1
102
RTVSPropertyOp4
 70
     1
102
RTVSPropertyOp5
 70
     1
102
RTVSPropertyOp6
 70
     1
102
RTVSPropertyOp7
 70
     1
102
RTVSPropertyOp8
 70
     1
102
RTVSPropertyOp9
 70
     1
102
RTVSPropertyOp10
 70
     1
102
RTVSPropertyOp11
 70
     1
102
RTVSPropertyOp12
 70
     1
102
RTVSPropertyOp13
 70
     1
102
RTVSPropertyOp14
 70
     1
102
RTVSPropertyOp15
 70
     1
102
RTVSPropertyOp16
 70
     1
102
RTVSPropertyOp17
 70
     1
102
RTVSPropertyOp18
 70
     1
102
RTVSPropertyOp19
 70
     1
102
RTVSPropertyOp20
 70
     1
102
RTVSPropertyOp21
 70
     1
102
RTVSPropertyOp22
 70
     1
102
RTVSPropertyOp23
 70
     1
102
RTVSPropertyOp24
 70
     1
102
RTVSPropertyOp25
 70
     1
102
RTVSPropertyOp26
 70
     1
102
RTVSPropertyOp27
 70
     1
102
RTVSPropertyOp28
 70
     1
102
RTVSPropertyOp29
 70
     1
102
RTVSPropertyOp30
 70
     1
102
RTVSPropertyOp31
 70
     1
102
RTVSPropertyOp32
 70
     1
102
RTVSPropertyOp33
 70
     1
102
RTVSPropertyOp34
 70
     1
102
RTVSPropertyOp35
 70
     1
102
RTVSPropertyOp36
 70
     1
102
RTVSPropertyOp37
 70
     1
102
RTVSPropertyOp38
 70
     1
102
RTVSPropertyOp39
 70
     1
102
RTVSPropertyOp40
 70
     1
102
RTVSPropertyOp41
 70
     1
102
RTVSPropertyOp42
 70
     1
102
RTVSPropertyOp43
 70
     1
102
RTVSPropertyOp44
 70
     1
102
RTVSPropertyOp45
 70
     1
102
RTVSPropertyOp46
 70
     1
102
RTVSPropertyOp47
 70
     1
102
RTVSPropertyOp48
 70
     1
102
RTVSPropertyOp49
 70
     1
102
RTVSPropertyOp50
 70
     1
102
RTVSPropertyOp51
 70
     0
102
RTVSPropertyOp52
 70
     0
102
RTVSPropertyOp53
 70
     1
102
RTVSPropertyOp54
 70
     1
102
RTVSPropertyOp55
 70
     1
102
RTVSPropertyOp56
 70
     1
102
RTVSPropertyOp57
 70
     1
102
RTVSPost2010Prop28
280
     0
102
RTVSPost2010PropOp28
 70
     1
102
RTVSPost2010Prop29
280
     1
102
RTVSPost2010PropOp29
 70
     1
102
RTVSPost2010Prop30
280
     1
102
RTVSPost2010PropOp30
 70
     1
102
RTVSPost2010Prop31
280
     0
102
RTVSPost2010PropOp31
 70
     1
102
RTVSPost2010Prop32
280
     0
102
RTVSPost2010PropOp32
 70
     1
102
RTVSPost2010Prop33
280
     0
102
RTVSPost2010PropOp33
 70
     1
102
RTVSPost2010Prop34
280
     0
102
RTVSPost2010PropOp34
 70
     1
102
RTVSPost2010Prop35
280
     0
102
RTVSPost2010PropOp35
 70
     1
102
RTVSPost2010Prop36
280
     0
102
RTVSPost2010PropOp36
 70
     1
102
RTVSPost2010Prop37
 90
       50
102
RTVSPost2010PropOp37
 70
     1
102
RTVSPost2010Prop38
140
0.0
102
RTVSPost2010PropOp38
 70
     1
102
RTVSPost2010Prop39
140
1.0
102
RTVSPost2010PropOp39
 70
     1
102
RTVSPost2010Prop40
 90
        0
102
RTVSPost2010PropOp40
 70
     1
102
RTVSPost2010Prop41ColorIndex
 90
       18
102
RTVSPost2010Prop41ColorRGB
 90
        0
102
RTVSPost2010PropOp41
 70
     1
102
RTVSPost2010Prop42
 90
       50
102
RTVSPost2010PropOp42
 70
     1
102
RTVSPost2010Prop43
 90
        3
102
RTVSPost2010PropOp43
 70
     1
102
RTVSPost2010Prop44ColorIndex
 90
        5
102
RTVSPost2010Prop44ColorRGB
 90
      255
102
RTVSPost2010PropOp44
 70
     1
102
RTVSPost2010Prop45
280
     0
102
RTVSPost2010PropOp45
 70
     1
102
RTVSPost2010Prop46
 90
       50
102
RTVSPost2010PropOp46
 70
     1
102
RTVSPost2010Prop47
 90
       50
102
RTVSPost2010PropOp47
 70
     1
102
RTVSPost2010Prop48
 90
       50
102
RTVSPost2010PropOp48
 70
     1
102
RTVSPost2010Prop49
280
     0
102
RTVSPost2010PropOp49
 70
     1
102
RTVSPost2010Prop50
 90
       50
102
RTVSPost2010PropOp50
 70
     1
102
RTVSPost2010Prop51ColorIndex
 90
      256
102
RTVSPost2010Prop51ColorRGB
 90
-16777216
102
RTVSPost2010PropOp51
 70
     0
102
RTVSPost2010Prop52
140
1.0
102
RTVSPost2010PropOp52
 70
     0
102
RTVSPost2010Prop53
 90
        2
102
RTVSPost2010PropOp53
 70
     1
102
RTVSPost2010Prop54
  1
strokes_ogs.tif
102
RTVSPost2010PropOp54
 70
     1
102
RTVSPost2010Prop55
280
     0
102
RTVSPost2010PropOp55
 70
     1
102
RTVSPost2010Prop56
140
1.0
102
RTVSPost2010PropOp56
 70
     1
102
RTVSPost2010Prop57
140
1.0
102
RTVSPost2010PropOp57
 70
     1
  0
ENDSEC
  0
EOF
